Song name
# A B C D E F G H I J K L M N O P Q R S T U V W X Y Z

Kreator - Flag Of Hate tab

Kreator-Flag Of Hate
Flag Of Hate EP

Okay I heard this song on the first album and thought it was hard back then but I heard 
on the EP and it sounded so perfect I had no choice to play it and took my time on it 
so here it is:

1) Main riff:
F|---------------------------------------------|
C|----5---5---5------7h8p7---------------------|
G|----55555555555----7h8p7---------------------|
D|---------------------------------------------|

2) Verse riff:
F|---------------------------------------------------------------|
C|--------------------------8-8-8-------------------------5-5-5--|
G|--5555555555555555555555556-6-6-5555555555555555555555553-3-3--|
D|--........................------........................-------|

3) Pre-chorus:
F|---------------------------------------------------------------|
C|--------------10--------------7--------------10------5------7--|
G|--777777777777-8--7777777777775--777777777777-8--33333--55555--|
D|--...........-----............---............----....---....---|

4a) Chorus:
F|-------------------------------------------------------------------|
C|--4-------------5-4-------------5-4-------------5-4----------------|
G|--2-2222222222223-2-2222222222223-2-2222222222223-2-2222222222225--|
D|----............----............----............----............3--|
4b)
F|----------------------------------------------------------------*--|
C|----------------------------------------------------------------2--|
G|--4-------------5-4-------------5-4-------------5-4-------------0--|
D|--2-2222222222223-2-2222222222223-2-2222222222223-2-222222222222---|
     ............    ............    ............    ............
*for the last time don't play this

5a) Post-chorus:
F|--------------------------------------|
C|-------------------------------*------|
G|--0000800070008000700080007000-10-9-7-|
D|--------------------------------8-7-5-|

5b) Fill:
This is added to the new version of the song,
and doesn't exist on the Endless Pain album.
F|-----------------|
C|-----------------|
G|--10-9-7---10-9--|
D|---8-7-5----8-7--|

6) Fill before solo:
F|-----------------------|
C|--9---7---5------------|
G|--7---5---3---5--4--2--|
D|--------------3--2--0--|
Tap to rate this tab
 
# A B C D E F G H I J K L M N O P Q R S T U V W X Y Z