Song name
# A B C D E F G H I J K L M N O P Q R S T U V W X Y Z

Kreator - People Of The Lie tab

e|--------8t3h6p3-------8t3h6p3-------8t3h6p3-------|
b|-8t3h6p3-------8t3h6p3-------8t3h6p3--------------|
g|--------------------------------------------------|       (x2)
d|--------------------------------------------------|
a|--------------------------------------------------|
E|--------------------------------------------------|

e|---------------------------------------------------------|
b|---------------------------------------------------------|
g|-5----(3)-----------(3)---------------------------(3)----|
d|----------5-3---3-5-----5-3-------(3)---------3-5-----5--|
a|--------------5-------------5-3-5---------3-5------------|
E|--------------------------------------3-5----------------|

e|--------------------------------------10-----------|
b|--------------------------------10-12----12-10-12--|
g|------------7-(9)b-7-------7-9---------------------|
d|--------7-9----------9-7-9-------------------------|
a|-9--5-7--------------------------------------------|
E|-7--.-.--------------------------------------------|

e|-------------------------------------------------------------------------|
b|-14t10h12p10-15t10h12p10-14t10h12p10-15t10h12p10-17t10h12p10-17t10h12p10-|
g|-------------------------------------------------------------------------|
d|-------------------------------------------------------------------------|
a|-------------------------------------------------------------------------|
E|-------------------------------------------------------------------------|

  -------------------------------------------------------------------------|
  -15t10h12p10-14t10h12p10-15t10h12p10-14t10h12p10-15t10h12p10-17t10h12p10-|
  -------------------------------------------------------------------------|
  -------------------------------------------------------------------------|
  -------------------------------------------------------------------------|
  -------------------------------------------------------------------------|

  -------------------------------------19---------------------------------|
  -19t10h12p10-19t10h12p10-21t10h12p10------------------------------------|
  ------------------------------------------------------------------------|
  ------------------------------------------------------------------------|
  ------------------------------------------------------------------------|
  ------------------------------------------------------------------------|

e|----------------------------------------------|
b|----------------------------------------------|
g|-14-12----------12----------------------------|
d|-------16-13-16----16-13-12----------12/13-12-|
a|----------------------------15-14-15----------|
E|----------------------------------------------|

e|--------------------------------------------------------------------------|
b|----------------------------------------------------------------15151517b-|
g|----------------------------------111111121212141414151515171717----------|
d|-999101010121212101010121212131313----------------------------------------|
a|--------------------------------------------------------------------------|
E|--------------------------------------------------------------------------|

Jaime Zelada Yntor (papo)
the two solo of ultimate guitar
Tap to rate this tab
 
# A B C D E F G H I J K L M N O P Q R S T U V W X Y Z