Kreator - Some Pain Will Last tab

Intro

|------------|------------|------------|------------|
|------------|------------|------------|------------|
|------------|------------|------------|------------|
|-------8----|-(8)--------|-------8----|-(8)--------|
|----8-------|-(8)--------|----8-------|-(8)--------|
|-6----------|-(6)--------|-6----------|-(6)--------|


  Gtr I
|-----------|-----------|-----------|-----------|-----------|-----------|-----------|-----------|
|-----------|-----------|-----------|-----------|-----------|-----------|-----------|-----------|
|-----------|-----------|-----------|-----------|-----------|-----------|-----------|-----------|
|-9---------|--8--------|-8---------|--7--------|-7---------|-2-----3---|-3---------|-7-----6---|
|-----------|-----------|-----------|-----------|-----------|-----------|-----------|-----------|
|-----------|-----------|-----------|-----------|-----------|-----------|-----------|-----------|
|
| Gtr II
|-----------|-----------|-----------|-----------|-----------|-----------|-----------|-----------|
|-----------|-----------|-----------|-----------|-----------|-----------|-----------|-----------|
|-----------|-----------|-----------|-----------|-----------|-----------|-----------|-----------|
|-------8---|-(8)-------|-------8---|-(8)-------|-------3---|-(3)-------|-------6---|-(6)-------|
|----8------|-(8)-------|----8------|-(8)-------|----3------|-(3)-------|----6------|-(6)-------|
|-6---------|-(6)-------|-6---------|-(6)-------|-1---------|-(1)-------|-4---------|-(4)-------|


  Gtr I
|-----------|-----------|-----------|-----------|-----------|-----------|-----------|-----------|
|-----------|-----------|-----------|-----------|-----------|-----------|-----------|-----------|
|-----------|-----------|-----------|-----------|-----------|-----------|-----------|-----------|
|-8--9--8--9|-8--9--8--9|-7--8--7--8|-7--8--7--8|-2--3--2--3|-2--3--2--3|-6--7--6--7|-6--7--6--7|
|-----------|-----------|-----------|-----------|-----------|-----------|-----------|-----------|
|-----------|-----------|-----------|-----------|-----------|-----------|-----------|-----------|
|
| Gtr II                                          PM............................................
|-----------|-----------|-----------|-----------|-----------|-----------|-----------|-----------|
|-----------|-----------|-----------|-----------|-----------|-----------|-----------|-----------|
|-----------|-----------|-----------|-----------|-----------|-----------|-----------|-----------|
|-------8---|-(8)-------|-------8---|-(8)-------|---3-----3-|---3-----3-|---6-----6-|---6-----6-|
|----8------|-(8)-------|----8------|-(8)-------|--3-3---3-3|--3-3---3-3|--6-6---6-6|--6-6---6-6|
|-6---------|-(6)-------|-6---------|-(6)-------|-1-----1---|-1-----1---|-4-----4---|-4-----4---|

 
  Gtr I
|--------------------|--------------------|--------------------|--------------------|
|--------------------|--------------------|--------------------|--------------------|
|--------------------|--------------------|--------------------|--------------------|
|--------------------|--------------------|--------------------|--------------------|
|--------------------|--------------------|--------------------|--------------------|
|-6-777777--6-777777-|-6-777777--6-777777-|-5-666666--5-666666-|-5-666666--5-666666-|
|
| Gtr II
| PM....................................    PM....................................
|--------------------|--------------------|--------------------|--------------------|
|--------------------|--------------------|--------------------|--------------------|
|--------------------|--------------------|--------------------|--------------------|
|-----8---------8----|-----8---------8----|-----7---------7----|-----7---------7----|
|---8---8-----8---8--|---8---8-----8---8--|---7---7-----7---7--|---7---7-----7---7--|
|-6---------6--------|-6---------6--------|-5---------5--------|-5---------5--------|


  Gtr I
|--------------------|--------------------|--------------------|--------------------|
|--------------------|--------------------|--------------------|--------------------|
|--------------------|--------------------|--------------------|--------------------|
|--------------------|--------------------|--------------------|--------------------|
|--------------------|--------------------|--------------------|--------------------|
|-0-111111--0-111111-|-0-111111--0-111111-|-4-555555--4-555555-|-4-555555--4-555555-|
|
| Gtr II
| PM....................................    PM....................................
|--------------------|--------------------|--------------------|--------------------|
|--------------------|--------------------|--------------------|--------------------|
|--------------------|--------------------|--------------------|--------------------|
|-----3---------3----|-----3---------3----|-----6---------6----|-----6---------6----|
|---3---3-----3---3--|---3---3-----3---3--|---6---6-----6---6--|---6---6-----6---6--|
|-1---------1--------|-1---------1--------|-4---------4--------|-4---------4--------|


Riff 1
  Gtr I
|--------------------|--------------------|--------------------|--------------------|
|--------------------|--------------------|--------------------|--------------------|
|--------------------|--------------------|--------------------|--------------------|
|--------------------|--------------------|--------------------|--------------------|
|--------------------|--------------------|--------------------|--------------------|
|-6-777777--6-777777-|-6-777777--6-777777-|-5-666666--5-666666-|-5-666666--5-666666-|
|
| Gtr II
| PM....................................    PM....................................
|--------------------|--------------------|--------------------|--------------------|
|--------------------|--------------------|--------------------|--------------------|
|--------------------|--------------------|--------------------|--------------------|
|-8------------------|-(8)----------------|-7------------------|-(7)----------------|
|-8------------------|-(8)----------------|-7------------------|-(7)----------------|
|-6------------------|-(6)----------------|-5------------------|-(5)----------------|


  Gtr I
|--------------------|--------------------|--------------------|--------------------|
|--------------------|--------------------|--------------------|--------------------|
|--------------------|--------------------|--------------------|--------------------|
|--------------------|--------------------|--------------------|--------------------|
|--------------------|--------------------|--------------------|--------------------|
|-0-111111--0-111111-|-0-111111--0-111111-|-4-555555--4-555555-|-4-555555--4-555555-|
|
| Gtr II
| PM....................................    PM....................................
|--------------------|--------------------|--------------------|--------------------|
|--------------------|--------------------|--------------------|--------------------|
|--------------------|--------------------|--------------------|--------------------|
|-3------------------|-(3)----------------|-6------------------|-(6)----------------|
|-3------------------|-(3)----------------|-6------------------|-(6)----------------|
|-1------------------|-(1)----------------|-4------------------|-(4)----------------|


Riff 2
  Gtr I
2x    PM....   PM....
||--------------------|--------------------|
||--------------------|--------------------|
||--------------------|--------------------|
||-2--------10--------|-8----11---12---9---|
||-2--10-8-7---10-8-7-|------11---12---9---|
||-0------------------|------9----10---7---|
|                                        
| Gtr II
||--------------------|--------------------|
||--------------------|--------------------|
||--------------------|--------------------|
||-2--------10--------|-8----11---12---9---|
||-2--10-8-7---10-8-7-|------11---12---9---|
||-0------------------|------9----10---7---|
  

     PM....   PM....        PM..................................
                            |--3--|  |--3--|    |--3--|  |--3--|
|--------------------|------------------------|------------------||
|--------------------|------------------------|------------------||
|--------------------|------------------------|------------------||
|-2--------10--------|-8----------------------|------------------||
|-2--10-8-7---10-8-7-|------------------------|-7--8--7--8--7--8-||
|-0------------------|------9--10-9--10-9--10-|------------------||
|                      
| Gtr II
|    PM....   PM....        PM..................................
|--------------------|------------------------|------------------||
|--------------------|------------------------|------------------||
|--------------------|------------------------|------------------||
|-2--------10--------|-8----------------------|------------------||
|-2--10-8-7---10-8-7-|------------------------|-7--8--7--8--7--8-||
|-0------------------|------9--10-9--10-9--10-|------------------||


Riff 3 (Chorus)
  Gtr I
2x    PM....   PM....
||--------------------|--------------------|
||--------------------|--------------------|
||--------------------|--------------------|
||-2--------10--------|-8----11---12---9---|
||-2--10-8-7---10-8-7-|------11---12---9---|
||-0------------------|------9----10---7---|
|                                        
| Gtr II
|     PM....   PM....
||--------------------|--------------------|
||--------------------|--------------------|
||----------10--------|-8------------------|
||-2--10-8-7---10-8-7-|------11---12---9---|
||-2------------------|------11---12---9---|
||-0------------------|------9----10---7---|


  Gtr I
     PM...    PM...         PM..................................
                            |--3--|  |--3--|    |--3--|  |--3--|
|--------------------|------------------------|------------------||
|--------------------|------------------------|------------------||
|--------------------|------------------------|------------------||
|-2--------10--------|-8----------------------|------------------||
|-2--10-8-7---10-8-7-|------------------------|-7--8--7--8--7--8-||
|-0------------------|------9--10-9--10-9--10-|------------------||
|                        
| Gtr II
|    PM....    PM....       PM..................................
|                           |--3--|  |--3--|    |--3--|  |--3--|
|--------------------|------------------------|------------------||
|--------------------|------------------------|------------------||
|----------10--------|-8----------------------|------------------||
|-2--10-8-7---10-8-7-|------------------------|------------------||
|-2------------------|------------------------|-7--8--7--8--7--8-||
|-0------------------|------9--10-9--10-9--10-|------------------||


Riff 4 (Verse)
4x     PM...             PM...
||------------------|-----------------|
||o-----------------|-----------------|
||--9---------9-7-9-|-10-------10-7-9-|
||--9---------9-7-9-|-10-------10-7-9-|
||o-7---------7-5-7-|-8--------8--5-7-|
||--0--0-0-0--------|----0-0-0--------|


     PM....            PM...   PM.   PM.
|-----------------|------------------------||
|-----------------|-----------------------o||
|-9---------9-7-9-|------------------------||
|-9---------9-7-9-|------------------------||
|-7---------7-5-7-|-7--------7-----8------o||
|----0-0-0--------|-6--6-6-6---6-6---6-6---||


Repeat Riff 3 (Chorus)
Repeat Riff 4 (Verse)
Repeat Riff 3 (Chorus)


Fill 1
  PM..................................
  |--3--|  |--3--|    |--3--|  |--3--|
|-------------------|------------------||
|-------------------|------------------||
|-------------------|-5--6--5--6--5--7-||
|-8--9--8--9--8--9--|----------------7-||
|-------------------|----------------5-||
|-------------------|------------------||
  

Riff 5
       PM.....................
2x     |--4--| |--4--| |--4--|
||-----------------------------|---------------|
||-----------------------------|---------------|
||-7---------------------------|-8--7--8--7--6-|
||-7---------------------------|-6--5--8--7--6-|
||-5----5-5-5---5-5-5---5-5-5--|-------6--5--4-|
||-----------------------------|---------------|

       PM....................................................
       |--4--| |--4--| |--4--|  |--4--| |--4--| |--4--| |--4--|
|-----------------------------|-------------------------------||
|-----------------------------|-------------------------------||
|-6---------------------------|-------------------------------||
|-6---------------------------|-------------------------------||
|-4----4-4-4---4-4-4---4-4-4--|-4-4-4---4-4-4---4-4-4---4-4-4-||
|-----------------------------|-------------------------------||


        PM.....................
3x      |--4--| |--4--| |--4--|
||-----------------------------|----------------||
||-----------------------------|----------------||
||-----------------------------|----------------||
||-6---------------------------|-7--6--6--7--7--||
||-6---------------------------|-7--6--6--7--7--||
||-4----4-4-4---4-4-4---4-4-4--|-5--4--4--5--5--||

        PM.....................
1x      |--4--| |--4--| |--4--|
||-----------------------------|----------------||
||-----------------------------|----------------||
||-----------------------------|-------------8--||
||-6---------------------------|-7--6--8--7--8--||
||-6---------------------------|-7--6--8--7--6--||
||-4----4-4-4---4-4-4---4-4-4--|-5--4--6--5-----||


Rhythm while solo:
       PM.....................
2x     |--4--| |--4--| |--4--|
||-----------------------------|---------------|
||-----------------------------|---------------|
||-7---------------------------|-8--7--8--7--6-|
||-7---------------------------|-6--5--8--7--6-|
||-5----5-5-5---5-5-5---5-5-5--|-------6--5--4-|
||-----------------------------|---------------|

       PM....................................................
       |--4--| |--4--| |--4--|  |--4--| |--4--| |--4--| |--4--|
|-----------------------------|-------------------------------||
|-----------------------------|-------------------------------||
|-6---------------------------|-------------------------------||
|-6---------------------------|-------------------------------||
|-4----4-4-4---4-4-4---4-4-4--|-4-4-4---4-4-4---4-4-4---4-4-4-||
|-----------------------------|-------------------------------||


        PM.....................
4x      |--4--| |--4--| |--4--|
||-----------------------------|----------------||
||-----------------------------|----------------||
||-5---------------------------|-5--5--5--6--6--||
||-5---------------------------|-5--5--5--6--6--||
||-3----3-3-3---3-3-3---3-3-3--|-4--3--3--4--4--||
||-----------------------------|----------------||


Fill 2
|----------------------|
|----------------------|
|-5----5----5----6-----|
|-5----5----5----6-----|
|-3----3----3----4-----|
|----------------------|


|--------------------|--------------------|--------------------|--------------------|
|--------------------|--------------------|--------------------|--------------------|
|--------------------|--------------------|--------------------|--------------------|
|--------------------|--------------------|--------------------|--------------------|
|--------------------|--------------------|--------------------|--------------------|
|-6-777777--6-777777-|-6-777777--6-777777-|-5-666666--5-666666-|-5-666666--5-666666-|


|--------------------|--------------------|--------------------|--------------------|
|--------------------|--------------------|--------------------|--------------------|
|--------------------|--------------------|--------------------|--------------------|
|--------------------|--------------------|--------------------|--------------------|
|--------------------|--------------------|--------------------|--------------------|
|-0-111111--0-111111-|-0-111111--0-111111-|-4-555555--4-555555-|-4-555555--4-555555-|


Repeat Riff 1


|-------------|-------------|----------|--------*|
|-------------|-------------|----------|--------*|
|-------------|----7--6-----|----------|--------*|
|-2--4--5--8--|-7--7--6--7--|-8--------|-(8)----*|
|-2--4--5--8--|-7--5--4--7--|-8--------|-(8)----*|
|-0--2--3--6--|-5--------5--|-6--------|-(6)----*|
Tap to rate this tab
 
# A B C D E F G H I J K L M N O P Q R S T U V W X Y Z