Song name
# A B C D E F G H I J K L M N O P Q R S T U V W X Y Z

Kreator - Brainseed tab

Song: Brainseed
Artist: Kreator
Album: Renewal
Year: 1992

Tuning: E Standard (From 6th: E, A, D, G, B, E)

A very catchy piece from one of their most underrated albums, Renewal.
Guitars (especially Guitar 2 on the Scenarios of Violence remaster)
have a very crunchy and heavily distorted sound.

Riff 1:
|Both Guitars
|-----------------------------------|
|-----------------------------------|
|-----------------------------------|
|-----------------------------------|
|--2-2-2---5-4-2---5-4-2---5-4-2-3--|
|--0-0-0---3-2-0---3-2-0---3-2-0-1--|
   . . .   . . .   . . .   . . . .


Riff 2: Verse Intro
|Guitar 1 (second time only):
|------------------------------------------|
|------------------------------------------|
|------------------------------------------|
|------------------------------------------|
|-------------------------7-7-7-7-7-7-7-7--|
|------------------------------------------|
|                         . . . . . . . .
|
|Guitar 2:
|-----------------------------------------|
|-----------------------------------------|
|o---------------------------------------o|
|o---------------------------------------o|
|------7p6-------4h6-4h6-7h6--------------|
|--0-0-7p6--0-0--4h6-4h6-7h6-0-0-0-0-0-0--|
   . .      . .              . . . . . .


Riff 2A: Verse (Repeat 4x)
|Guitar 1:
|-----------------------------------------------|
|-----------------------------------------------|
|o----------------------------------------------|
|o----------------------------------------------|
|------14p13-----11h13-11h13-14h13--------------|
|--0-0-------0-0-------------------0-0-0-0-0-0--|
|  . .       . .                   . . . . . .
|
|Guitar 2:
|----------------------------------------|
|----------------------------------------|
|----------------------------------------|
|------2p1-------------------------------|
|------2p1------4h6-4h6-7h6--------------|
|--0-0-----0-0--4h6-4h6-7h6-0-0-0-0-0-0--|
   . .     . .              . . . . . .

|Guitar 1:
|----------------------------------------------------|
|----------------------------------------------------|
|---------------------------------------------------o|
|---------------------------------------------------o|
|------14p13-----11h13-11h13-14h13-------------------|
|--0-0-------0-0-------------------0000000033333333--|
|  . .       . .                   ................
|
|Guitar 2:
|---------------------------------------------|
|---------------------------------------------|
|--------------------------------------------o|
|--------------------------------------------o|
|------7p6------4h6-4h6-7h6-------------------|
|--0-0-7p6-0-0--4h6-4h6-7h6-0000000033333333--|
   . .     . .              ................


Riff 3:
|Both Guitars
|-----------------------------|
|-----------------------------|
|-----------------------------|
|--2-----5---7---4-----5---7--|
|--2-----5---7---4-----5---7--|
|--0-----3---5---2-----3---5--|


Play:
Riff 2A
Riff 3


Riff 2B (basically play pull-offs one step higher)
|Guitar 1:
|---------------------------------------------|
|---------------------------------------------|
|o--------------------------------------------|
|o-----11p10-----9h10-9h10-11h10--------------|
|---------------------------------------------|
|--0-0-------0-0-----------------0-0-0-0-0-0--|
|  . .       . .                 . . . . . .
|
|Guitar 2:
|----------------------------------------|
|----------------------------------------|
|----------------------------------------|
|----------------------------------------|
|------9p8------6h8-6h8-9h8--------------|
|--0-0-9p8-0-0--6h8-6h8-9h8-0-0-0-0-0-0--|
   . .     . .              . . . . . .

Riff 4: Pre-Chorus (Repeat 4x)
|Both Guitars:
|---------------------------------|
|---------------------------------|
|o-------------------------------o|
|o-------------------------------o|
|--------------4---------------6--|
|--1-1-1-1-1-1-2---1-1-1-1-1-1-4--|
   . . . . . .     . . . . . . *

*last time let ring

Play:
Riff 1


Riff 5: (Repeat 4x)
|Guitar 1:
|--------------------------------------|
|--------------------------------------|
|-------------------------------------o|
|--2---------------9-------8---4h5p4--o|
|--2---------------9-------8--------5--|
|--0---------------7-------6-----------|
|
|
|Guitar 2:
|------------------------------------|
|------------------------------------|
|-----------------------------------o|
|--7-x-7-x-7-x-7---7-x-7-x-7-x-7----o|
|--5-x-5-x-5-x-5-555-x-5-x-5-x-5-55--|
|------------------------------------|


Riff 6: Solo Rhythm (Repeat 4x)
|---------------------------------|
|---------------------------------|
|o-------------------------------o|
|o---------7-----7-------7-------o|
|--5-5-5-5-5-5-5-5-5-5-5-5-5-5-5--|
|---------------------------------|
|  . . . .   . .   . . .   . . .
|
|Guitar 2:
|----------------------------------------------------|
|--------------15-------14-------------15-14---------|
|--11-11-11-11----11-11----11-15-14-11-------11-11--o|
|---------------------------------------------------o|
|----------------------------------------------------|
|----------------------------------------------------|


Solo:
|--------------------------------------------------------------------|
|--------------------------------------------------------------------|
|---2-2-2-2-2-2-2-2-2-2-2-2-2-2-2-2-4-4-4-4-4-4-4-4-4-4-4-4-4-4-4-4--|
|---4-4-4-4-4-4-4-4-4-4-4-4-4-4-4-4-6-6-6-6-6-6-6-6-6-6-6-6-6-6-6-6--|
|--------------------------------------------------------------------|
|--------------------------------------------------------------------|


|-----------------------------------------------------------------------|
|------------------/20-18-17-18---12-13-15-13-12-10---------------------|
|----16-17-19-17------------------------------------12-11-9------------o|
|-----------------------------------------------------------12-11-9-12-o|
|-----------------------------------------------------------------------|
|-----------------------------------------------------------------------|

Play:
Riff 5
Riff 4
Riff 2A
Riff 3


Riff 1A: Outro
|Both Guitars
|-----------------------------------|
|-----------------------------------|
|-----------------------------------|
|--------------------------------2--|
|--2-2-2---5-4-2---5-4-2---5-4-2-2--|
|--0-0-0---3-2-0---3-2-0---3-2-0-0--|
   . . .   . . .   . . .   . . .


Total Riff Order (repeat numbers included):
Riff 1 4x
Riff 2 2x
Riff 2A 4x
Riff 3
Riff 2A 4x
Riff 3
Riff 2B 2x
Riff 4 4x
Riff 1 4x
Riff 5 4x
Riff 6
Solo
Riff 5 4x
Riff 4 4x
Riff 2A 4x
Riff 3
Riff 1A/Outro


I hope this is mostly accurate. Send any questions or corrections to: 
za_rodinu@live.com. Thanks for viewing this!
Tap to rate this tab
# A B C D E F G H I J K L M N O P Q R S T U V W X Y Z