Song name
# A B C D E F G H I J K L M N O P Q R S T U V W X Y Z

Kreator - Civilization Collapse tab

This is how i play intro to the song.
This song is played in D tuning. So if you want to play it in E tuning, just play 
everything that's here, just 2 frets lower.



|--------------------------------------|--------------------------------------------------|
|--------------------------------------|----------------------------------6--5h6p5--------|
|--------5--4-----------------4--5--4--|--------5--4-----------------4h5------------7--5--|
|-----5--------7--5--7-----7-----------|-----5--------7--5--7-----7-----------------------|
|--7--------------------8--------------|--7--------------------8--------------------------|
|--------------------------------------|--------------------------------------------------|


|--------------------------------------|-----------------------------------------------------|
|--------------------------------------|----------------------------------------------/8--7--|
|--------5--4-----------------4--5--4--|------------------------------5--4h5p4---------------|
|-----5--------7--5--7-----7-----------|--5--4h5p4-----4------------------------7--5---------|
|--7--------------------8--------------|------------7-----7--5--7--5-------------------------|
|--------------------------------------|-----------------------------------------------------|
Tap to rate this tab
# A B C D E F G H I J K L M N O P Q R S T U V W X Y Z