Song name
# A B C D E F G H I J K L M N O P Q R S T U V W X Y Z

Kreator - Flag Of Hate tab

-------------------------------------------------------------------------------
			     Flag of Hate - Kreator
-------------------------------------------------------------------------------
Tabbed by: Sirweird
Email: akalordsauron@aol.com

Tuning: Standard

I have the song on my profile incase you wanna hear or play along to

e|---------------------------------------------------------------------------|
B|---------------------------------------------------------------------------|
G|--3--------3--------3--------5--6--4---------------------------------------|
D|--3--------3--------3--------5--6--4---------------------------------------|x4
A|----000000---000000---000000-----------------------------------------------|
E|---------------------------------------------------------------------------|
      ******   ******   ******

e|---------------------------------------------------------------------------|
B|---------------------------------------------------------------------------|
G|---------------------------------------------------------------------------|
D|------------------8-8-8------------------5-5-5-----------------------------|
A|--555555555555555-6-6-6--555555555555555-3-3-3-----------------------------|
E|---------------------------------------------------------------------------|
    ***************        ***************

e|---------------------------------------------------------------------------|
B|---------------------------------------------------------------------------|
G|--3--------3--------3--------5--6--4---------------------------------------|
D|--3--------3--------3--------5--6--4---------------------------------------|x2
A|----000000---000000---000000-----------------------------------------------|
E|---------------------------------------------------------------------------|
      ******   ******   ******

e|---------------------------------------------------------------------------|
B|---------------------------------------------------------------------------|
G|---------------------------------------------------------------------------|
D|------------------8-8-8------------------5-5-5-----------------------------|
A|--555555555555555-6-6-6--555555555555555-3-3-3-----------------------------|
E|---------------------------------------------------------------------------|
    ***************        ***************

e|---------------------------------------------------------------------------|
B|---------------------------------------------------------------------------|
G|--3--------3--------3--------5--6--4---------------------------------------|
D|--3--------3--------3--------5--6--4---------------------------------------|x2
A|----000000---000000---000000-----------------------------------------------|
E|---------------------------------------------------------------------------|
      ******   ******   ******

e|---------------------------------------------------------------------------|
B|---------------------------------------------------------------------------|
G|---------------------------------------------------------------------------|
D|-------------10-------------7-------------10-----5------7------------------|x4
A|--7777777777-8---7777777777-5--7777777777-8--333-3--555-5------------------|
E|---------------------------------------------------------------------------|
    **********     **********    **********    ***    ***

e|---------------------------------------------------------------------------|
B|---------------------------------------------------------------------------|
G|---------------------------------------------------------------------------|
D|--4----------5-4----------5-4----------5-4---------------------------------|
A|--2-22222222-3-2-22222222-3-2-22222222-3-2-22222222-5----------------------|
E|----------------------------------------------------3----------------------|
 |    ********     ********     ********     ********                        |
 |                                                                           |x2
e|---------------------------------------------------------------------------|
B|---------------------------------------------------------------------------|
G|---------------------------------------------------------------------------|
D|---------------------------------------------------2-----------------------|
A|--4----------5-4----------5-4--------- 5-4---------0-----------------------|
E|--2-22222222-3-2-22222222-3-2-22222222-3-2-22222222------------------------|
      ********     ********     ********    ********
e|---------------------------------------------------------------------------|
B|---------------------------------------------------------------------------|
G|---------------------------------------------------------------------------|
D|---------------------------------------------------------------------------|x8
A|--000800070008000700080007000800070008--10--9--7---------------------------|
E|----------------------------------------8---7--5---------------------------|
    ************************************

e|---------------------------------------------------------------------------|
B|---------------------------------------------------------------------------|
G|--3--------3--------3--------5--6--4---------------------------------------|
D|--3--------3--------3--------5--6--4---------------------------------------|x4
A|----000000---000000---000000-----------------------------------------------|
E|---------------------------------------------------------------------------|
      ******   ******   ******

e|---------------------------------------------------------------------------|
B|---------------------------------------------------------------------------|
G|---------------------------------------------------------------------------|
D|------------------8-8-8------------------5-5-5-----------------------------|
A|--555555555555555-6-6-6--555555555555555-3-3-3-----------------------------|
E|---------------------------------------------------------------------------|
    ***************        ***************

e|---------------------------------------------------------------------------|
B|---------------------------------------------------------------------------|
G|--3--------3--------3--------5--6--4---------------------------------------|
D|--3--------3--------3--------5--6--4---------------------------------------|x2
A|----000000---000000---000000-----------------------------------------------|
E|---------------------------------------------------------------------------|
      ******   ******   ******

e|---------------------------------------------------------------------------|
B|---------------------------------------------------------------------------|
G|---------------------------------------------------------------------------|
D|------------------8-8-8------------------5-5-5-----------------------------|
A|--555555555555555-6-6-6--555555555555555-3-3-3-----------------------------|
E|---------------------------------------------------------------------------|
    ***************        ***************

e|---------------------------------------------------------------------------|
B|---------------------------------------------------------------------------|
G|--3--------3--------3--------5--6--4---------------------------------------|
D|--3--------3--------3--------5--6--4---------------------------------------|x2
A|----000000---000000---000000-----------------------------------------------|
E|---------------------------------------------------------------------------|
      ******   ******   ******

e|---------------------------------------------------------------------------|
B|---------------------------------------------------------------------------|
G|---------------------------------------------------------------------------|
D|-------------10-------------7-------------10-----5------7------------------|x4
A|--7777777777-8---7777777777-5--7777777777-8--333-3--555-5------------------|
E|---------------------------------------------------------------------------|
    **********     **********    **********    ***    ***

e|---------------------------------------------------------------------------|
B|---------------------------------------------------------------------------|
G|---------------------------------------------------------------------------|
D|--4----------5-4----------5-4----------5-4---------------------------------|
A|--2-22222222-3-2-22222222-3-2-22222222-3-2-22222222-5----------------------|
E|----------------------------------------------------3----------------------|
 |    ********     ********     ********     ********                        |
 |                                                                           |x2
e|---------------------------------------------------------------------------|
B|---------------------------------------------------------------------------|
G|---------------------------------------------------------------------------|
D|---------------------------------------------------2-----------------------|
A|--4----------5-4----------5-4--------- 5-4---------0-----------------------|
E|--2-22222222-3-2-22222222-3-2-22222222-3-2-22222222------------------------|
      ********     ********     ********    ********
e|---------------------------------------------------------------------------|
B|---------------------------------------------------------------------------|
G|---------------------------------------------------------------------------|
D|---------------------------------------------------------------------------|x8
A|--000800070008000700080007000800070008--10--9--7---------------------------|
E|----------------------------------------8---7--5---------------------------|
    ************************************

e|--------------------|
B|--------------------|
G|--------------------|
D|--9--7--5-----------|
A|--7--5--3--5--4--2--|
E|-----------3--2--0--|

Ryhtem Behind Solo:
e|---------------------------------------------------------------------------|
B|---------------------------------------------------------------------------|
G|---------------------------------------------------------------------------|
D|-------------10-------------7-------------10-----5------7------------------|x4
A|--7777777777-8---7777777777-5--7777777777-8--333-3--555-5------------------|
E|---------------------------------------------------------------------------|
    **********     **********    **********    ***    ***

e|---------------------------------------------------------------------------|
B|---------------------------------------------------------------------------|
G|---------------------------------------------------------------------------|
D|-------------10-------------7-------------10-----5------7------------------|x2
A|--7777777777-8---7777777777-5--7777777777-8--333-3--555-5------------------|
E|---------------------------------------------------------------------------|
    **********     **********    **********    ***    ***

e|---------------------------------------------------------------------------|
B|---------------------------------------------------------------------------|
G|---------------------------------------------------------------------------|
D|--4----------5-4----------5-4----------5-4---------------------------------|
A|--2-22222222-3-2-22222222-3-2-22222222-3-2-22222222-5----------------------|
E|----------------------------------------------------3----------------------|
 |    ********     ********     ********     ********                        |
 |                                                                           |x2
e|---------------------------------------------------------------------------|
B|---------------------------------------------------------------------------|
G|---------------------------------------------------------------------------|
D|---------------------------------------------------2-----------------------|
A|--4----------5-4----------5-4--------- 5-4---------0-----------------------|
E|--2-22222222-3-2-22222222-3-2-22222222-3-2-22222222------------------------|
      ********     ********     ********    ********



THE END


| /  slide up
| \  slide down
| h  hammer-on
| p  pull-off
| ~  vibrato
| +  harmonic
| *  Palm Mute
===============================================================================
Tap to rate this tab
# A B C D E F G H I J K L M N O P Q R S T U V W X Y Z