Song name
# A B C D E F G H I J K L M N O P Q R S T U V W X Y Z

Kreator - Terror Zone tab

#----------------------------------PLEASE NOTE---------------------------------#
#This file is the author's own work and represents their interpretation of the #
#song. You may only use this file for private study, scholarship, or research. #
#------------------------------------------------------------------------------#

TERROR ZONE
As recorded by Kreator
(From the 1990 Album COMA OF SOULS)

Transcribed by The Foreverlorn
	



A5
x 0 2 2 x x
	
G5
3 5 5 x x x
	
F5
1 3 3 x x x
	
E5
0 2 2 x x x

Gtr I (E A D G B E) - 'Untitled'
Gtr II (E A D G B E) - 'Untitled'
Gtr III (E A D G B E) - 'Untitled'

 Intro
  Q=90
  A5                A5                  G5                F5      E5  G5
 4/4
  Gtr III
  W                 H..             E   W                 H       Q   Q
  |                 |               |   |                 |       |   |
  /                 /               /   /                 /       /   /

  Gtr I
  E E E E E E E E   E   E E E E E E E   E E E E E E E E   E E E E E E E E
|-----------------|-------------------|-----------------|------------------|
|-----5-----3-----|-------5-----3-----|-----------------|------------------|
|-2-4---4-5---5-4-|-2---4---4-5---5-4-|-----------------|------------------|
|-----------------|-------------------|-5---2-3-5-3-2---|------------------|
|-----------------|-------------------|---5-----------5-|-3---2-3-5-3-2----|
|-----------------|-------------------|-----------------|---5-----------3--|
|
| Gtr II
| E E E E E E E E   E   E E E E E E E   E E E E E E E E   E E E E E E E E
|-----------------|-------------------|-----------------|------------------|
|-----5-----3-----|-------5-----3-----|-----------------|------------------|
|-2-4---4-5---5-4-|-2---4---4-5---5-4-|-----------------|------------------|
|-----------------|-------------------|-5---2-3-5-3-2---|------------------|
|-----------------|-------------------|---5-----------5-|-3---2-3-5-3-2----|
|-----------------|-------------------|-----------------|---5-----------3--|


  A5                A5                  G5                F5      E5  G5
  W                 H..             E   W                 H       Q   Q
  |                 |               |   |                 |       |   |
  /                 /               /   /                 /       /   /

  E E E E E E E E   E   E E E E E E E   E E E E E E E E   E E E E E E E E
|-----------------|-------------------|-----------------|-----------------|
|-----------------|-------------------|-----------------|-----------------|
|-----2-----------|-------2-----------|-----------------|-----------------|
|---2-----2-3-2---|-----2-----2-3-2---|---------2-------|-2-----2-3-2-----|
|-3-----5-------5-|-3-------5-------3-|-5-2-3-5---5-3-2-|-----5-------5-3-|
|-----------------|-------------------|-----------------|---5-------------|
|
| E E E E E E E E   E   E E E E E E E   E E E E E E E E   E E E E E E E E
|-----------------|-------------------|-----------------|-----------------|
|-----5-----3-----|-------5-----3-----|-----------------|-----------------|
|-2-4---4-5---5-4-|-2---4---4-5---5-4-|-----------------|-----------------|
|-----------------|-------------------|-5---2-3-5-3-2---|-----------------|
|-----------------|-------------------|---5-----------5-|-3---2-3-5-3-2---|
|-----------------|-------------------|-----------------|---5-----------3-|


  A5                A5                  G5                F5      E5  G5
  W                 H..             E   W                 H       Q   Q
  |                 |               |   |                 |       |   |
  /                 /               /   /                 /       /   /

  E E E E E E E E   E   E E E E E E E   E E E E E E E E   E E E E E E E E
|-----5-----------|-------5-----------|-----------------|-----------------|
|---5---5-6-8-6-5-|-----5---5-6-8-6-5-|---------5-------|-----------------|
|-----------------|-------------------|-7-4-5-7---7-5-4-|-----------------|
|-7---------------|-7-----------------|-----------------|-7---5-7---------|
|-----------------|-------------------|-----------------|---8-----8-7-5---|
|-----------------|-------------------|-----------------|---------------7-|
|
| E E E E E E E E   E   E E E E E E E   E E E E E E E E   E E E E E E E E
|-----------------|-------------------|-----------------|-----------------|
|-----5-----3-----|-------5-----3-----|-----------------|-----------------|
|-2-4---4-5---5-4-|-2---4---4-5---5-4-|-----------------|-----------------|
|-----------------|-------------------|-5---2-3-5-3-2---|-----------------|
|-----------------|-------------------|---5-----------5-|-3---2-3-5-3-2---|
|-----------------|-------------------|-----------------|---5-----------3-|


  A5                A5                  G5                F5      E5  G5
  W                 H..             E   W                 H       Q   Q
  |                 |               |   |                 |       |   |
  /                 /               /   /                 /       /   /

  E E E E E E E E   E   E E E E E E E   E E E E E E E E   E E E E E E E E
|-----------------|-------------------|-----------------|-----------------|
|-----------------|-------------------|-----------------|-----------------|
|-----2-----------|-------2-----------|-----------------|-----------------|
|---2-----2-3-2---|-----2-----2-3-2---|---------2-------|-2-----2-3-2-----|
|-3-----5-------5-|-3-------5-------3-|-5-2-3-5---5-3-2-|-----5-------5-3-|
|-----------------|-------------------|-----------------|---5-------------|
|
| E E E E E E E E   E   E E E E E E E   E E E E E E E E   E E E E E E E E
|-----------------|-------------------|-----------------|-----------------|
|-----5-----3-----|-------5-----3-----|-----------------|-----------------|
|-2-4---4-5---5-4-|-2---4---4-5---5-4-|-----------------|-----------------|
|-----------------|-------------------|-5---2-3-5-3-2---|-----------------|
|-----------------|-------------------|---5-----------5-|-3---2-3-5-3-2---|
|-----------------|-------------------|-----------------|---5-----------3-|


 Break
  Q=120
  A5
  Gtrs I, II
  W          +W           +W           +W
|----------|------------|------------|--------|
|----------|------------|------------|--------|
|-2--------|-(2)--------|-(2)--------|-(2)----|
|-2--------|-(2)--------|-(2)--------|-(2)----|
|-0--------|-(0)--------|-(0)--------|-(0)----|
|----------|------------|------------|--------|


  A5                               G5A5Bb5
  +W           +W           +H     E E E +E
|------------|------------|-------------------|
|------------|------------|-------------------|
|-(2)--------|-(2)--------|-(2)---------------|
|-(2)--------|-(2)--------|-(2)----5-7-8-(8)\-|
|-(0)--------|-(0)--------|-(0)----5-7-8-(8)\-|
|------------|------------|--------3-5-6-(6)\-|


 Chorus Riff
  N.C.E5        G5F#B5  Bb5 E5N.C.
  PM|   PM----|           PM  PM----|
  E E E S S S S E E E   E E E S S S S E E +E
|---------------------|-----------------------|
|---------------------|-----------------------|
|---------------------|-----------------------|
|-----2-------------4-|-3---2-----------------|
|-----2---------5-4-2-|-1---2---------1-2-(2)-|
|-0-0-0-0-0-0-0-3-2---|---0-0-0-0-0-0---------|


      E5        G5F#B5  Bb5 E5    G5A5Bb5
  PM|   PM----|           PM  PM|
  E E E S S S S E E E   E E E S S E E E +E
|---------------------|------------------------|
|---------------------|------------------------|
|---------------------|------------------------|
|-----2-------------4-|-3---2-----5-7-8-(8)\---|
|-----2---------5-4-2-|-1---2-----5-7-8-(8)\---|
|-0-0-0-0-0-0-0-3-2---|---0-0-0-0-3-5-6-(6)\---|


  N.C.E5        G5F#B5  Bb5  E5N.C.
  Gtr I
  W                      W
|---------------------|------------------------|
|---------------------|------------------------|
|-9-------------------|-12---------------------|
|-9-------------------|-12---------------------|
|-7-------------------|-10---------------------|
|---------------------|------------------------|
|
| Gtr II
| PM|   PM----|            PM  PM----|
| E E E S S S S E E E    E E E S S S S E E +E
|---------------------|------------------------|
|---------------------|------------------------|
|---------------------|------------------------|
|-----2-------------4-|--3---2-----------------|
|-----2---------5-4-2-|--1---2---------1-2-(2)-|
|-0-0-0-0-0-0-0-3-2---|----0-0-0-0-0-0---------|


       E5        G5F#B5  Bb5  E5    G5A5Bb5
   W                      W
|----------------------|-------------------------|
|----------------------|-------------------------|
|-11-------------------|-10----------------------|
|-11-------------------|-10----------------------|
|--9-------------------|--8----------------------|
|----------------------|-------------------------|
|
|  PM|   PM----|            PM  PM|
|  E E E S S S S E E E    E E E S S E E E +E
|----------------------|-------------------------|
|----------------------|-------------------------|
|----------------------|-------------------------|
|------2-------------4-|--3---2-----5-7-8-(8)\---|
|------2---------5-4-2-|--1---2-----5-7-8-(8)\---|
|--0-0-0-0-0-0-0-3-2---|----0-0-0-0-3-5-6-(6)\---|


  N.C.E5        G5F#B5  Bb5  E5N.C.
  Gtr I
  W                      W
|---------------------|------------------------|
|---------------------|------------------------|
|-9-------------------|-12---------------------|
|-9-------------------|-12---------------------|
|-7-------------------|-10---------------------|
|---------------------|------------------------|
|
| Gtr II
| PM|   PM----|            PM  PM----|
| E E E S S S S E E E    E E E S S S S E E +E
|---------------------|------------------------|
|---------------------|------------------------|
|---------------------|------------------------|
|-----2-------------4-|--3---2-----------------|
|-----2---------5-4-2-|--1---2---------1-2-(2)-|
|-0-0-0-0-0-0-0-3-2---|----0-0-0-0-0-0---------|


       E5        G5F#B5  Bb5  E5        G5    A5Bb5
                                \1/       \1/     \1/
   W                      Q    +Q        +Q      +Q
|----------------------|-------------------------------------|
|----------------------|-------------------------------------|
|-14-------------------|-15---(15)------(15)----(15)---------|
|-14-------------------|-15---(15)------(15)----(15)---------|
|-12-------------------|-13---(13)------(13)----(13)---------|
|----------------------|-------------------------------------|
|
|  PM|   PM----|            PM      PM|
|  E E E S S S S E E E    E E   E   S S   E   E   E   +E
|----------------------|-------------------------------------|
|----------------------|-------------------------------------|
|----------------------|-------------------------------------|
|------2-------------4-|--3-----2---------5---7---8---(8)\---|
|------2---------5-4-2-|--1-----2---------5---7---8---(8)\---|
|--0-0-0-0-0-0-0-3-2---|----0---0---0-0---3---5---6---(6)\---|


 Interlude
  Q=110
  E5       G5              F#G5  N.C.    G5              F#G5
                    3/8         4/4               3/8
           PM----------------|           PM----|
   H.      S S S S   +s  S E E   H.      S S S S   +s  S E E
|------------------|-----------|-----------------|------------|
|------------------|-----------|-----------------|------------|
|--9---------------|-----------|-9---------------|------------|
|--9---------------|-----------|-----------------|------------|
|--7-------5-5-5-5-|-(5)---4-5-|-7-------5-5-5-5-|-(5)---4-5--|
|----------3-3-3-3-|-(3)---2-3-|---------3-3-3-3-|-(3)---2-3--|
|
|          PM----------------|           PM----|
|  H.      S S S S   +s  S E E   H.      S S S S   +s  S E E
|------------------|-----------|-----------------|------------|
|------------------|-----------|-----------------|------------|
|-13---------------|-----------|-9---------------|------------|
|------------------|-----------|-----------------|------------|
|-11-------5-5-5-5-|-(5)---4-5-|-7-------5-5-5-5-|-(5)---4-5--|
|----------3-3-3-3-|-(3)---2-3-|---------3-3-3-3-|-(3)---2-3--|


  C5         B5            F#G5
 4/4        5/8
             PM--------------|
  W          S S S S +s  S E E
|----------|-------------------|
|----------|-------------------|
|-5--------|-------------------|
|-5--------|-4-4-4-4-(4)-------|
|-3--------|-2-2-2-2-(2)---4-5-|
|----------|---------------2-3-|
|
|            PM--------------|
| W          S S S S +s  S E E
|----------|-------------------|
|----------|-------------------|
|-9--------|-------------------|
|----------|-4-4-4-4-(4)-------|
|-7--------|-2-2-2-2-(2)---4-5-|
|----------|---------------2-3-|


   Pre-Verse
    N.C.                              BbN.C.
   4/4
    Gtrs I, II
    PM----------------------------|     PM---------------------------|
    S S S S S S S S S S S S S S S S   S S S S S S S S S S S S S S  S S
||----------------------------------|----------------------------------|
||o---------------------------------|----------------------------------|
||----------------------------------|----------------------------------|
||----------------------------------|----------------------------------|
||o---------------------------------|-8-----------------------7-8-10-7-|
||--0-0-0-0-0-0-0-0-0-0-0-0-3-0-2-0-|-6-6-6-6-6-6-6-6-6-6-6-6----------|


  E5N.C.                            B5N.C.
    PM--------------------------|     PM--------------------------|
  S S S S S S S S S S S S S S S S   S S S S S S S S S S S S S S S S
|---------------------------------|----------------------------------||
|---------------------------------|---------------------------------o||
|---------------------------------|----------------------------------||
|---------------------------------|----------------------------------||
|-2-------------------------------|-9---------------6-7-9-6---------o||
|-0-0-0-0-0-0-0-0-0-0-0-0-3-0-2-0-|-7-7-7-7-7-7-7-7---------7-8-7-5--||


   Verse
    $
    E5                Bb5                E5
            PM----|           PM-----|           PM----|
    H.      S S S S   H.      S S  S S   H.      S S S S
||------------------|------------------|-----------------|
||o-----------------|------------------|-----------------|
||------------------|------------------|-----------------|
||--2---------------|-8----------------|-2---------------|
||o-2---------------|-8-------7-8-10-7-|-2---------------|
||--0-------3-0-2-0-|-6----------------|-0-------3-0-2-0-|


  1.                      2.
                               To Coda
  F5                       F5   C5 G5 C#5
       PM------------|
  H    S S S S S S S S     H    E. E. E
|-----------------------||---------------|
|----------------------o||---------------|
|-----------------------||------5-----6\-|
|-3---------------------||-3----5--5--6\-|
|-3----6-7-9-6---------o||-3----3--5--4\-|
|-1------------7-8-7-5--||-1-------3-----|


   Interlude #2
    N.C.
     PM--------------------------------------
     S S  S S  S S  S S  S S  S S  S S  S S
||------------------------------------------|
||o-----------------------------------------|
||------------------------------------------|
||--10-9------10-9------10-9------10-9------|
||o------10-9------10-9------10-9------10-9-|
||------------------------------------------|


 --------------------------------|
  S S S S S S S S S S S S S  S S S
|------------------------------------||
|-----------------------------------o||
|------------------------------------||
|-9-8-----9-8-----9-8----------8-9---||
|-----9-8-----9-8-----9-8-9-10------o||
|------------------------------------||


  N.C.
  Gtr I
   PM----------------------------------------------
   S  S  S  S  S  S  S  S  S  S  S  S  S  S  S  S
|-------------------------------------------------|
|-------------------------------------------------|
|-------------------------------------------------|
|-14-13-------14-13-------14-13-------14-13-------|
|-------14-13-------14-13-------14-13-------14-13-|
|-------------------------------------------------|
|
| Gtr II
|  PM----------------------------------------------
|  S  S  S  S  S  S  S  S  S  S  S  S  S  S  S  S
|-------------------------------------------------|
|-------------------------------------------------|
|-------------------------------------------------|
|-10--9-------10--9-------10--9-------10--9-------|
|-------10--9-------10--9-------10--9-------10--9-|
|-------------------------------------------------|


 ----------------------------------------------|
   S  S  S  S  S  S  S  S  S  S  S  S  S  S  S  S
|-------------------------------------------------|
|-------------------------------------------------|
|-------------------------------------------------|
|-13-12-------13-12-------13-12-------------12-13-|
|-------13-12-------13-12-------13-12-13-14-------|
|-------------------------------------------------|
|
|----------------------------------------------|
|  S  S  S  S  S  S  S  S  S  S  S  S  S  S  S  S
|-------------------------------------------------|
|-------------------------------------------------|
|-------------------------------------------------|
|--9--8--------9--8--------9--8--------------8--9-|
|--------9--8--------9--8--------9--8--9-10-------|
|-------------------------------------------------|


  N.C.
   PM----------------------------------------------
   S  S  S  S  S  S  S  S  S  S  S  S  S  S  S  S
|-------------------------------------------------|
|-------------------------------------------------|
|-------------------------------------------------|
|-14-13-------14-13-------14-13-------14-13-------|
|-------14-13-------14-13-------14-13-------14-13-|
|-------------------------------------------------|
|
|  PM----------------------------------------------
|  S  S  S  S  S  S  S  S  S  S  S  S  S  S  S  S
|-------------------------------------------------|
|-------------------------------------------------|
|-------------------------------------------------|
|-10--9-------10--9-------10--9-------10--9-------|
|-------10--9-------10--9-------10--9-------10--9-|
|-------------------------------------------------|


                    D.S. al Coda
                          C5 G5 G#5
 ----------------------|
   S  S  S  S  S  S  S  S E. E. E
|---------------------------------|
|---------------------------------|
|-------------------------5-------|
|-13-12-------13-12-------5--5--6-|
|-------13-12-------13-12-3--5--6-|
|----------------------------3--4-|
|
|----------------------|
|  S  S  S  S  S  S  S  S E. E. E
|---------------------------------|
|---------------------------------|
|-------------------------5-------|
|--9--8--------9--8-------5--5--6-|
|--------9--8--------9--8-3--5--6-|
|----------------------------3--4-|


   Chorus
    Q=120
    &
    N.C.E5        G5F#B5  Bb5 E5N.C.
    Gtrs I, II
    PM|   PM----|           PM  PM----|
    E E E S S S S E E E   E E E S S S S E E +E
||----------------------|-----------------------|
||o---------------------|-----------------------|
||----------------------|-----------------------|
||------2-------------4-|-3---2-----------------|
||o-----2---------5-4-2-|-1---2---------1-2-(2)-|
||--0-0-0-0-0-0-0-3-2---|---0-0-0-0-0-0---------|


      E5        G5F#B5  Bb5 E5    G5A5Bb5
  PM|   PM----|           PM  PM|
  E E E S S S S E E E   E E E S S E E E +E
|---------------------|------------------------||
|---------------------|-----------------------o||
|---------------------|------------------------||
|-----2-------------4-|-3---2-----5-7-8-(8)\---||
|-----2---------5-4-2-|-1---2-----5-7-8-(8)\--o||
|-0-0-0-0-0-0-0-3-2---|---0-0-0-0-3-5-6-(6)\---||


 Break
  Q=110
  E5       G5              F#G5
                    3/8
  Gtr I
           PM----------------|
   H.      S S S S   +s  S E E
|------------------|-----------|
|------------------|-----------|
|--9---------------|-----------|
|--9---------------|-----------|
|--7-------5-5-5-5-|-(5)---4-5-|
|----------3-3-3-3-|-(3)---2-3-|
|
| Gtr II
|          PM----------------|
|  H.      S S S S   +s  S E E
|------------------|-----------|
|------------------|-----------|
|-13---------------|-----------|
|------------------|-----------|
|-11-------5-5-5-5-|-(5)---4-5-|
|----------3-3-3-3-|-(3)---2-3-|


 Guitar Solo
  N.C.
 4/4
  Gtr I
  \2.5
  H..                             S  S
|--------------------------------------|
|--------------------------------------|
|--------------------------------------|
|--------------------------------------|
|--------------------------------------|
|-0------------------------------10-12-|
|
| Gtr III
| PM--------------------------------|
| S    S S S S S S S S S S S S S  S  S
|--------------------------------------|
|--------------------------------------|
|--------------------------------------|
|--------------------------------------|
|--------------------------------------|
|-0----0-0-0-0-0-0-0-0-0-0-0-3-0--2--0-|


  Bb5
               \1/             \1/
                                                   |---3---|
   S  S  +S   +S    S  S  +S   S     Q.            S  S    S
|-------------------------------------------------------------|
|-------------------------------------------------------------|
|----------------------------------/12------------------------|
|---------------------12-(12)-14------------------14-12-------|
|-10-12-(12)-(12)--14-------------------------------------14--|
|-------------------------------------------------------------|
|
|     PM------------------------------------------------|
|  S  S   S    S    S  S   S   S     S  S S S S S  S    S
|-------------------------------------------------------------|
|-------------------------------------------------------------|
|-------------------------------------------------------------|
|-------------------------------------------------------------|
|--8------------------------------------------7-8-10----7-----|
|--6--6---6----6----6--6---6---6-----6--6-6-6-----------------|


  E5 N.C.
            |---3---|  |---3---|  |---3---|             |---3---|  |---3---|
   S  S  S  S  S    S  S  S    S  S  S    S  +S   S  S  S  S    S  S  S    S
|-----------------------------12-14-15---17-(17)-15-14-15-14---12------------|
|------------------12-13-15---------------------------------------15-13---12-|
|----------12-14-------------------------------------------------------------|
|-14-12-14-------------------------------------------------------------------|
|----------------------------------------------------------------------------|
|----------------------------------------------------------------------------|
|
|     PM----------------------------------------------------------------|
|  S  S  S  S    S     S    S     S    S      S   S  S  S    S     S    S
|----------------------------------------------------------------------------|
|----------------------------------------------------------------------------|
|----------------------------------------------------------------------------|
|----------------------------------------------------------------------------|
|--2-------------------------------------------------------------------------|
|--0--0--0--0----0-----0----0-----0----0------0---0--0--3----0-----2----0----|


  B5    N.C.
                                                \2.5
   |---3---|  |---3---|  |---3---|  |---3---|
   S  S    S  S  S    S  S  S    S  S  S    S   E       +E     +E     +E
|-14-12---------12-------------------------------------------------------------|
|---------13-12------15-13-12---13-12------------------------------------------|
|-------------------------------------14---12-[14]-----(14)---(14)---(14)------|
|------------------------------------------------------------------------------|
|------------------------------------------------------------------------------|
|------------------------------------------------------------------------------|
|
|       PM----------------------------------------------------------------|
|  S    S     S    S     S    S     S    S      S    S   S  S   S  S   S  S
|------------------------------------------------------------------------------|
|------------------------------------------------------------------------------|
|------------------------------------------------------------------------------|
|------------------------------------------------------------------------------|
|--9--------------------------------------------6----7---9--6------------------|
|--7----7-----7----7-----7----7-----7----7----------------------7--8---7--5----|


   Verse
    E5                Bb5                E5
    Gtrs I, II
            PM----|           PM-----|           PM----|
    H.      S S S S   H.      S S  S S   H.      S S S S
||------------------|------------------|-----------------|
||o-----------------|------------------|-----------------|
||------------------|------------------|-----------------|
||--2---------------|-8----------------|-2---------------|
||o-2---------------|-8-------7-8-10-7-|-2---------------|
||--0-------3-0-2-0-|-6----------------|-0-------3-0-2-0-|


  1.                      2.
  F5                       F5   C5 G5 C#5
       PM------------|
  H    S S S S S S S S     H    E. E. E
|-----------------------||---------------|
|----------------------o||---------------|
|-----------------------||------5-----6\-|
|-3---------------------||-3----5--5--6\-|
|-3----6-7-9-6---------o||-3----3--5--4\-|
|-1------------7-8-7-5--||-1-------3-----|


   Chorus
    Q=120
    N.C.E5        G5F#B5  Bb5 E5N.C.
    PM|   PM----|           PM  PM----|
    E E E S S S S E E E   E E E S S S S E E +E
||----------------------|-----------------------|
||o---------------------|-----------------------|
||----------------------|-----------------------|
||------2-------------4-|-3---2-----------------|
||o-----2---------5-4-2-|-1---2---------1-2-(2)-|
||--0-0-0-0-0-0-0-3-2---|---0-0-0-0-0-0---------|


      E5        G5F#B5  Bb5 E5    G5A5Bb5
  PM|   PM----|           PM  PM|
  E E E S S S S E E E   E E E S S E E E +E
|---------------------|------------------------||
|---------------------|-----------------------o||
|---------------------|------------------------||
|-----2-------------4-|-3---2-----5-7-8-(8)\---||
|-----2---------5-4-2-|-1---2-----5-7-8-(8)\--o||
|-0-0-0-0-0-0-0-3-2---|---0-0-0-0-3-5-6-(6)\---||


 Drum Break
                    E5F5A5BbC5C#C5Bb5
              6/4
  Wx3          H    E E E E E E E E
|------------|----------------------|
|------------|----------------------|
|------------|----------2-3-5-6-5-3-|
|------------|------2-3-2-3-5-6-5-3-|
|------------|------2-3-0-1-3-4-3-1-|
|------------|------0-1-------------|


 Guitar Solo #2
  Q=240
  N.C.
 4/4
  Gtr II
    \1                      \2
    ~~~~~~~~~~~~~~~~~~~~~~~~~~~~~~~~~~~~~~~~~~
    H.             Q        W
|-----------------------|--------------------|
|-----------------------|--------------------|
|-[17]-----------[20]---|-[17]---------------|
|-----------------------|--------------------|
|-----------------------|--------------------|
|-----------------------|--------------------|
|
| Gtr III
|      PM  PM  PM     PM         PM|     PM|
|   E  E E E E E   E  E     E  E E E E E E E
|-----------------------|--------------------|
|-----------------------|--------------------|
|-----------------------|--------------------|
|--10----9---7-----5----|---5--7-----5-7-----|
|------0---0---0------0-|--------0-0-----0-0-|
|-----------------------|--------------------|


                                     C5 Eb5
    \1                      \2
 ~~~~~~~~~~~~~~~~~~~~~~~~~~~~~~
    H.             Q        W
|-----------------------|-------------------|
|-----------------------|-------------------|
|-[17]-----------[20]---|-[17]--------------|
|-----------------------|-------------------|
|-----------------------|-------------------|
|-----------------------|-------------------|
|
|      PM  PM  PM     PM         PM|
|   E  E E E E E   E  E     E  E E E Q  Q
|-----------------------|-------------------|
|-----------------------|-------------------|
|-----------------------|------------5--8---|
|--10----9---7-----5----|---5--7-----5--8---|
|------0---0---0------0-|--------0-0-3--6---|
|-----------------------|-------------------|


  N.C.
   S  S  S  S  S  S  S  S  S  S  S  S  S  S  S  S
|-11-11-11-11-12-12-12-12-15-15-15-15-12-12-12-12-|
|-------------------------------------------------|
|-------------------------------------------------|
|-------------------------------------------------|
|-------------------------------------------------|
|-------------------------------------------------|
|
|        PM          PM          PM          PM
|  E     E     E     E     E     E     E     E
|-------------------------------------------------|
|-------------------------------------------------|
|-------------------------------------------------|
|-10-----------9-----------7-----------5----------|
|--------0-----------0-----------0-----------0----|
|-------------------------------------------------|


   S  S  S  S  S  S  S  S  S  S  S  S  S  S  S  S
|-------------------------------------------------|
|-12-12-12-12-13-13-13-13-15-15-15-15-13-13-13-13-|
|-------------------------------------------------|
|-------------------------------------------------|
|-------------------------------------------------|
|-------------------------------------------------|
|
|              PM---|                  PM---|
|  E     E     E     E     E     E     E     E
|-------------------------------------------------|
|-------------------------------------------------|
|-------------------------------------------------|
|--5-----7-----------------5-----7----------------|
|--------------0-----0-----------------0-----0----|
|-------------------------------------------------|


  N.C.                                                       C5    Eb5
                                                               ~~~~
   S  S  S  S  S  S  S  S  S  S  S  S  S  S  S  S    H        +H
|-------------------------------------------------|-------------------|
|-------------------------------------------------|-------------------|
|-12-12-12-12-14-14-14-14-15-15-15-15-14-14-12-12-|-14-------(14)-----|
|-------------------------------------------------|-------------------|
|-------------------------------------------------|-------------------|
|-------------------------------------------------|-------------------|
|
|        PM          PM          PM          PM          PM|
|  E     E     E     E     E     E     E     E       E E E E   Q   Q
|-------------------------------------------------|-------------------|
|-------------------------------------------------|-------------------|
|-------------------------------------------------|------------5---8--|
|-10-----------9-----------7-----------5----------|--5-7-------5---8--|
|--------0-----------0-----------0-----------0----|------0-0---3---6--|
|-------------------------------------------------|-------------------|


 Guitar Solo #3
  N.C.
  Gtr I
   \2.5
   W                         H.              Q
|-------------------------|-----------------------|
|-------------------------|-----------------------|
|-14----------------------|-12tr14-----------9\---|
|-------------------------|-----------------------|
|-------------------------|-----------------------|
|-------------------------|-----------------------|
|
| Gtr III
|  PM-------------------|            PM|     PM----
|  E    E E E E E S S S S    E     E E E E E E  E
|-------------------------|-----------------------|
|-------------------------|-----------------------|
|-------------------------|-----------------------|
|-------------------------|-----------------------|
|-------------------------|--5-----7-----5-7------|
|--0----0-2-2-3-3-5-3-2-0-|----------0-0-----0--0-|


                                                                 F5        N.C.
                                                                   ~~~~
   S  S  S  S  S  S  S  S  S  S   Q.             Q         +Q      H
|--------------------------------------------|---------------------------------|
|--------------------------------------------|---------------------------------|
|-13-12-14-12-14-12-14-12-14-12--------------|---------------------------------|
|-------------------------------[14]---------|-[14]b17====(14)r==[14]----------|
|--------------------------------------------|---------------------------------|
|--------------------------------------------|---------------------------------|
|
|------------------------------------------|                PM-|           PM|
|  E     E     E     E     E      E  S S S S     E      E   E  E   E   +E  E E
|--------------------------------------------|---------------------------------|
|--------------------------------------------|---------------------------------|
|--------------------------------------------|--------------------10--(10)-----|
|--------------------------------------------|--------------------10--(10)-----|
|--------------------------------------------|---5------7----------8---(8)-----|
|--0-----0-----2-----2-----3------3--5-3-2-0-|--------------0--0-----------0-0-|


  N.C.
                                                              \2.5
   |--3--|           |---3---|
   S  S  S  S  S  S  S  S    S  S  S  S  S  S  S  S  S  S     Q       +Q      Q     Q
|-17p15p11-15-12-15-18p17p==15----------------------------|---------------------------------|
|------------------------------16-15-12-15-12-------------|---------------------------------|
|---------------------------------------------14-12-14-12-|---------------------------------|
|---------------------------------------------------------|-[14]-----(14)---[14]---14tr12---|
|---------------------------------------------------------|---------------------------------|
|---------------------------------------------------------|---------------------------------|
|
|  PM--------------------------------------------------|               PM-|         PM-------
|  E        E     E       E        E     E     S  S  S  S     E    E   E  E   E  E  E     E
|---------------------------------------------------------|---------------------------------|
|---------------------------------------------------------|---------------------------------|
|---------------------------------------------------------|---------------------------------|
|---------------------------------------------------------|---------------------------------|
|---------------------------------------------------------|---5----7----------5--7----------|
|--0--------0-----2-------2--------3-----3-----5--3--2--0-|------------0--0---------0-----0-|


                                                    F5      N.C.
                   \2.5________________|
   +H              H                  +Q      Q      H
|----------------------------------|------------------------------|
|----------------------------------|------------------------------|
|----------------------------------|------------------------------|
|-(14tr12)-------[14]--------------|-(14)---[14]\-----------------|
|----------------------------------|------------------------------|
|----------------------------------|------------------------------|
|
|--------------------------------|            PM--|         PM|
|   E      E E E   E     E S S S S     E  E   E   E  E  +E  E E
|----------------------------------|------------------------------|
|----------------------------------|------------------------------|
|----------------------------------|----------------10-(10)-------|
|----------------------------------|----------------10-(10)-------|
|----------------------------------|---5--7----------8--(8)-------|
|---0------0-2-2---3-----3-5-3-2-0-|----------0---0---------0-0---|


 Guitar Solo #4
  C5 N.C.                  D5    N.C.       G5    F#5
  Gtr II
   PM----------------------|         PM      PM----------
   E  E  E  E  E  E  E E    E  a  E  E  a E  E  E  E  E
|------------------------|------------------------------|
|-13-11-13----10---------|------------------------------|
|----------12----12-10-9-|-10-10h12-12-10p9-10-12-10-10-|
|------------------------|------------------------------|
|------------------------|------------------------------|
|------------------------|------------------------------|
|
| Gtr III
|     PM    PM    PM   PM         PM------|
|  E  E  E  E  E  E  E E    E     E  E    E  Q     Q
|------------------------|------------------------------|
|------------------------|------------------------------|
|------------------------|------------------------------|
|--5-----5-----6-----5---|--7---------------------------|
|--3--3-----3-----3----3-|--5-----5--5----5--5-----4----|
|------------------------|-------------------3-----2----|


  C5 N.C.                  D5 N.C.    A5 C5C#5
 ----------------------------------|
   E  E  E  E  E E  E  E    E  E E  E  Q    +Q
|------------------------|---------------------------|
|-13-11-10---------------|---------------------------|
|----------12-10-9-10-12-|-12-10-9-10----------------|
|------------------------|------------12---(12)\-----|
|------------------------|---------------------------|
|------------------------|---------------------------|
|
|     PM    PM   PM    PM      PM--------|
|  E  E  E  E  E E  E  E    E  E E  E  E E   E   +E
|------------------------|---------------------------|
|------------------------|---------------------------|
|------------------------|---------------------------|
|--5-----5-----6----5----|--7------------5---6---(6)-|
|--3--3-----3----3-----3-|--5--5-5--5--7-3---4---(4)-|
|------------------------|-------------5-------------|


  C5 N.C.             D5  N.C.  G5 F#5
   H        H          H.           Q
|-------------------|------------------|
|-------------------|-11---------------|
|-12-------11-------|------------------|
|-------------------|--8-----------12--|
|-10--------9-------|------------------|
|-------------------|------------------|
|
|    PM  PM   PM  PM      PM--|
|  E E E E  E E E E    E  E E E Q   Q
|-------------------|------------------|
|-------------------|------------------|
|-------------------|------------------|
|--5---5----6---5---|--7---------------|
|--3-3---3----3---3-|--5--5-5-5-5---4--|
|-------------------|-----------3---2--|


  C5 N.C.              D5 N.C.   A5 C5C#5
   H         H          Q    Q    H
|----------/17-------|----------------------|
|--------------------|-15-------------------|
|--------------------|------12---14---------|
|-11-----------------|----------------------|
|--------------------|----------------------|
|--------------------|----------------------|
|
|    PM  PM    PM  PM     PM--------|
|  E E E E   E E E E    E E  E E  E E E +E
|--------------------|----------------------|
|--------------------|----------------------|
|--------------------|----------------------|
|--5---5-----6---5---|--7-----------5-6-(6)-|
|--3-3---3-----3---3-|--5-5--5-5--7-3-4-(4)-|
|--------------------|------------5---------|


 Guitar Solo #5
  N.C.
  Gtr I
   T                       T
   S  S  S  S  S  S  S  S  S  S  S  S  S  S  S  S
|-20p19p15p12h15h17h19p15-20p19p15p12h15h17h19p15-|
|-------------------------------------------------|
|-------------------------------------------------|
|-------------------------------------------------|
|-------------------------------------------------|
|-------------------------------------------------|
|
| Gtr III
|        PM          PM          PM          PM
|  E     E     E     E     E     E     E     E
|-------------------------------------------------|
|-------------------------------------------------|
|-------------------------------------------------|
|-10-----------9-----------7-----------5----------|
|--------0-----------0-----------0-----------0----|
|-------------------------------------------------|


   T                       T
   S  S  S  S  S  S  S  S  S  S  S  S  S  S  S  S
|-20p19p15p12h15h17h19p15-20p19p15p12h15h17h19p15-|
|-------------------------------------------------|
|-------------------------------------------------|
|-------------------------------------------------|
|-------------------------------------------------|
|-------------------------------------------------|
|
|              PM---|                  PM---|
|  E     E     E     E     E     E     E     E
|-------------------------------------------------|
|-------------------------------------------------|
|-------------------------------------------------|
|--5-----7-----------------5-----7----------------|
|--------------0-----0-----------------0-----0----|
|-------------------------------------------------|


  N.C.
   T                       T
   S  S  S  S  S  S  S  S  S  S  S  S  S  S  S  S
|-20p19p15p12h15h17h19p15-20p19p15p12h15h17h19p15-|
|-------------------------------------------------|
|-------------------------------------------------|
|-------------------------------------------------|
|-------------------------------------------------|
|-------------------------------------------------|
|
|        PM          PM          PM          PM
|  E     E     E     E     E     E     E     E
|-------------------------------------------------|
|-------------------------------------------------|
|-------------------------------------------------|
|-10-----------9-----------7-----------5----------|
|--------0-----------0-----------0-----------0----|
|-------------------------------------------------|


                          C5          Eb5
   T
   S  S  S  S  S  S  S  S  E      +E   +E   +E
|-20p19p15p12h15h17h19p15-15b17==(15)-(15)r(15)-|
|-----------------------------------------------|
|-----------------------------------------------|
|-----------------------------------------------|
|-----------------------------------------------|
|-----------------------------------------------|
|
|              PM---|
|  E     E     E     E     Q            Q
|-----------------------------------------------|
|-----------------------------------------------|
|--------------------------5------------8-------|
|--5-----7-----------------5------------8-------|
|--------------0-----0-----3------------6-------|
|-----------------------------------------------|


  N.C.
   S      +S   +E   E  E  E  E  E  E    E     +E   S      +S   +E   E  E  E  E
|-15b17==(15)r(15)-12-------12-------|-----------------------------------------|
|---------------------15-12----15-12-|-----------------------------------------|
|------------------------------------|-14b16-(14)-14b16==(14)r(14)-12-------12-|
|------------------------------------|--------------------------------14-12----|
|------------------------------------|-----------------------------------------|
|------------------------------------|-----------------------------------------|
|
|               PM     PM    PM    PM              PM---------|           PM|
|  E            E   E  E  E  E  E  E    E      E   E            E   E  E  E  E
|------------------------------------|-----------------------------------------|
|------------------------------------|-----------------------------------------|
|------------------------------------|-----------------------------------------|
|-10----------------9-----7-----5----|--5------7--------------------5--7-------|
|---------------0------0-----0-----0-|-------------0------------0---------0--0-|
|------------------------------------|-----------------------------------------|


                                      C5   Eb5
   E  E  E  E  E  E  E  E   Q   +Q     Q   Q
|-------------------------|-------------------|
|-------------------------|-------------------|
|-------------------------|-------------------|
|-14-12-------------------|-------------------|
|-------14-12-------------|-------------------|
|-------------15-12-10-15-|-5---(5)s==15\--5--|
|
|     PM    PM    PM    PM       PM-|
|  E  E  E  E  E  E  E  E   E E  E  E  Q   Q
|-------------------------|-------------------|
|-------------------------|-------------------|
|-------------------------|------------5---8--|
|-10-----9-----7-----5----|-5-7--------5---8--|
|-----0-----0-----0-----0-|------0--0--3---6--|
|-------------------------|-------------------|


  D5   Bb5  A5              G5                A5              Bb5
                                             2/4
  +Q    Q    S     +S   +E   S     +S   +E     S     +S   +E   S     +S   +E
|-------------------------------------------|---------------------------------|
|-----------15----(15)-(15)-15----(15)-(15)-|-15----(15)-(15)-15----(15)-(15)-|
|-----------14b16-(14)-(14)-14b16-(14)-(14)-|-14b16-(14)-(14)-14b16-(14)-(14)-|
|-------------------------------------------|---------------------------------|
|-------------------------------------------|---------------------------------|
|-(5)s=18\----------------------------------|---------------------------------|
|
|  Q    Q    Q               Q                 Q               Q
|-------------------------------------------|---------------------------------|
|-------------------------------------------|---------------------------------|
|--7----3----2------------------------------|--2---------------3--------------|
|--7----3----2---------------5--------------|--2---------------3--------------|
|--5----1----0---------------5--------------|--0---------------1--------------|
|----------------------------3--------------|---------------------------------|


   Verse B
    N.C.
   4/4
    Gtrs I, II
    PM----------------|       PM|     PM---
    E E E E E E S S S S   E E E E E E E E
||----------------------|-----------------|
||o---------------------|-----------------|
||----------------------|-----------------|
||----------------------|-----------------|
||o---------------------|-5-7-----5-7-----|
||--0-0-2-2-3-3-5-3-2-0-|-----0-0-----0-0-|


                                F5      N.C.
 -------------------|       PM|         PM|
  E E E E E E S S S S   E E E E  E  +E  E E
|---------------------|----------------------||
|---------------------|---------------------o||
|---------------------|---------10-(10)------||
|---------------------|---------10-(10)------||
|---------------------|-5-7------8--(8)-----o||
|-0-0-2-2-3-3-5-3-2-0-|-----0-0---------0-0--||


   Verse C
    $$
    C5N.C.            D5N.C.  G5 F#5  C5N.C.            D5N.C.  A5C5C#5
      PM  PM  PM  PM    PM--|           PM  PM  PM  PM    PM------|
    E E E E E E E E   E E E E Q  Q    E E E E E E E E   E E E E E E E +E
||------------------|---------------|-----------------|---------------------||
||o-----------------|---------------|-----------------|--------------------o||
||------------------|---------------|-----------------|---------------------||
||--5---5---6---5---|-7-------------|-5---5---6---5---|-7---------5-6-(6)---||
||o-3-3---3---3---3-|-5-5-5-5-5--4--|-3-3---3---3---3-|-5-5-5-5-7-3-4-(4)--o||
||------------------|---------3--2--|-----------------|---------5-----------||


   Verse B
                                                                 D.S.S.
    N.C.                                                            C5 Eb5
       PM  PM  PM  PM      PM|     PM|      PM  PM  PM  PM      PM|
     E E E E E E E E   E E E E E E E E    E E E E E E E E   E E E E Q  Q
||-------------------|-----------------|------------------|-----------------||
||o------------------|-----------------|------------------|----------------o||
||-------------------|-----------------|------------------|---------5--8----||
||--10---9---7---5---|-5-7-----5-7-----|-10---9---7---5---|-5-7-----5--8----||
||o----0---0---0---0-|-----0-0-----0-0-|----0---0---0---0-|-----0-0-3--6---o||
||-------------------|-----------------|------------------|-----------------||


 Bridge
  D5 Bb5A5 G5   A5 Bb5
               2/4
  Q  Q  Q  Q    Q  Q
|-------------|-------|
|-------------|-------|
|-7--3--2-----|-2--3--|
|-7--3--2--5--|-2--3--|
|-5--1--0--5--|-0--1--|
|----------3--|-------|


 Outro (Intro Riff)
  Q=90
  A5                A5                  G5                F5      E5  G5
 4/4
  Gtr III
  W                 H..             E   W                 H       Q   Q
  |                 |               |   |                 |       |   |
  /                 /               /   /                 /       /   /

  Gtr I
  E E E E E E E E   E   E E E E E E E   E E E E E E E E   E E E E E E E E
|-----------------|-------------------|-----------------|------------------|
|-----------------|-------------------|-----------------|------------------|
|-----2-----------|-------2-----------|-----------------|------------------|
|---2-----2-3-2---|-----2-----2-3-2---|---------2-------|-2-----2-3-2------|
|-3-----5-------5-|-3-------5-------3-|-5-2-3-5---5-3-2-|-----5-------5-3--|
|-----------------|-------------------|-----------------|---5--------------|
|
| Gtr II
| E E E E E E E E   E   E E E E E E E   E E E E E E E E   E E E E E E E E
|-----------------|-------------------|-----------------|------------------|
|-----5-----3-----|-------5-----3-----|-----------------|------------------|
|-2-4---4-5---5-4-|-2---4---4-5---5-4-|-----------------|------------------|
|-----------------|-------------------|-5---2-3-5-3-2---|------------------|
|-----------------|-------------------|---5-----------5-|-3---2-3-5-3-2----|
|-----------------|-------------------|-----------------|---5-----------3--|


                                        H.=H
  A5                A5                  G5                F5      E5  G5
  W                 H..             E   W                 H       Q   Q
  |                 |               |   |                 |       |   |
  /                 /               /   /                 /       /   /

  E E E E E E E E   E   E E E E E E E   E E E E E E E E   E E E E E E E E
|-----5-----------|-------5-----------|-----------------|-----------------|
|---5---5-6-8-6-5-|-----5---5-6-8-6-5-|---------5-------|-----------------|
|-----------------|-------------------|-7-4-5-7---7-5-4-|-----------------|
|-7---------------|-7-----------------|-----------------|-7---5-7---------|
|-----------------|-------------------|-----------------|---8-----8-7-5---|
|-----------------|-------------------|-----------------|---------------7-|
|
| E E E E E E E E   E   E E E E E E E   E E E E E E E E   E E E E E E E E
|-----------------|-------------------|-----------------|-----------------|
|-----5-----3-----|-------5-----3-----|-----------------|-----------------|
|-2-4---4-5---5-4-|-2---4---4-5---5-4-|-----------------|-----------------|
|-----------------|-------------------|-5---2-3-5-3-2---|-----------------|
|-----------------|-------------------|---5-----------5-|-3---2-3-5-3-2---|
|-----------------|-------------------|-----------------|---5-----------3-|


  Q=75
  A5
  Gtrs I, II
  W          +W           +W           +W
|----------|------------|------------|--------*|
|----------|------------|------------|--------*|
|-2--------|-(2)--------|-(2)--------|-(2)----*|
|-2--------|-(2)--------|-(2)--------|-(2)----*|
|-0--------|-(0)--------|-(0)--------|-(0)----*|
|----------|------------|------------|--------*|



Duration Legend
---------------
W - whole; H - half; Q - quarter; E - 8th; S - 16th; T - 32nd; X - 64th; a - acciaccatura
+ - note tied to previous; . - note dotted; .. - note double dotted
Uncapitalized letters represent notes that are staccato (1/2 duration)
Irregular groupings are notated above the duration line
Duration letters will always appear directly above the note/fret number it represents the
duration for.  Duration letters with no fret number below them represent rests.  Multi-
bar rests are notated in the form Wxn, where n is the number of bars to rest for.  Low
melody durations appear below the staff

Tablature Legend
----------------
 h   - hammer-on
 p   - pull-off
 b   - bend
 pb  - pre-bend
 r   - bend release (if no number after the r, then release immediately)
 /\  - slide into or out of (from/to "nowhere")
 s   - legato slide
 S   - shift slide
 - natural harmonic
[n]  - artificial harmonic
n(n) - tapped harmonic
 ~   - vibrato
 tr  - trill
 T   - tap
 TP  - trem. picking
 PM  - palm muting
\n/  - tremolo bar dip; n = amount to dip
 \n  - tremolo bar down
 n/  - tremolo bar up
/n\  - tremolo bar inverted dip
 =   - hold bend; also acts as connecting device for hammers/pulls
 <> - volume swell (louder/softer)
 x   - on rhythm slash represents muted slash
 o   - on rhythm slash represents single note slash

Misc Legend
-----------
 |  - bar
||  - double bar
||o - repeat start
o|| - repeat end
*|  - double bar (ending)
 :  - bar (freetime)
 $  - Segno
 &  - Coda
Tempo markers -  = BPM(8/16=s8/s16), where s8 = swing 8ths, s16 = swing 16ths

Tap to rate this tab
# A B C D E F G H I J K L M N O P Q R S T U V W X Y Z