Song name
# A B C D E F G H I J K L M N O P Q R S T U V W X Y Z

Kreator - Betrayer tab

#----------------------------------PLEASE NOTE---------------------------------#
#This file is the author's own work and represents their interpretation of the #
#song. You may only use this file for private study, scholarship, or research. #
#------------------------------------------------------------------------------#

BETRAYER
As recorded by Kreator
(From the 1989 Album EXTREME AGGRESSION)

Transcribed by Devastator, Skeletor
	

Words by Mille Petrozza Music by Petrozza/Reil/Fioretti/Trzebiatowski

Gtr I (E A D G B E) - 'Rhythm Guitar 1'
Gtr II (E A D G B E) - 'Rhythm Guitar 2'
Gtr III (E A D G B E) - 'Solo guitar 1'
Gtr IV (E A D G B E) - 'Solo guitar 2'

 Intro
  Q=210
                 E5                          Eb5
 4/4
  Gtrs I, II
       PM----|                     PM----|
  H    E E E E   W          +H     E E E E   W
|--------------|----------|----------------|------|
|--------------|----------|----------------|------|
|--------------|----------|----------------|------|
|--------------|-2--------|-(2)------------|-8----|
|--------------|-2--------|-(2)------------|-6----|
|------7-6-5-6-|-0--------|-(0)----7-6-5-6-|------|


                   E5                          Eb5
         PM----|                     PM----|              PM------------|
  +H     E E E E   W          +H     E E E E   W          E E E E E E E E
|----------------|----------|----------------|----------|-------------------|
|----------------|----------|----------------|----------|-------------------|
|----------------|----------|----------------|----------|-------------------|
|-(8)------------|-2--------|-(2)------------|-8--------|-------------------|
|-(6)------------|-2--------|-(2)------------|-6--------|-------------------|
|--------7-6-5-6-|-0--------|-(0)----7-6-5-6-|----------|-7-6-5-6-7-6-5-0---|


  Faster Q=230
  D5             Eb5
  Gtr I
    PM---------|   PM--------------------------|
  E S S S  S S S E S S S S S S   E E E E E E E E
|------------------------------|-----------------|
|------------------------------|-----------------|
|------------------------------|-----------------|
|-7--------------8-------------|-----------------|
|-5--------------6-------------|-----------------|
|---0-0-0--0-0-0---0-0-0-0-0-0-|-7-6-5-6-7-6-5-0-|
|
| Gtr II
| E E   H.                       W
|------------------------------|-----------------|
|------------------------------|-----------------|
|------------------------------|-----------------|
|-7----------------------------|-----------------|
|-5----------------------------|-----------------|
|------------------------------|-----------------|


  D5             Eb5             F#5    A5G#5
    PM---------|   PM--------|      PM|
  E S S S  S S S E S S S S S S   E  E E E H
|------------------------------|---------------|
|------------------------------|---------------|
|------------------------------|---------------|
|-7--------------8-------------|---------------|
|-5--------------6-------------|-4------7-6----|
|---0-0-0--0-0-0---0-0-0-0-0-0-|-2--0-0-5-4----|
|
| E E   H.                       Q.     E H
|------------------------------|---------------|
|------------------------------|---------------|
|------------------------------|---------------|
|-7----------------------------|---------------|
|-5----------------------------|--------7-6----|
|------------------------------|--------5-4----|


    D5            Eb5
    Gtrs I, II
      PM--------|   PM--------------------------|
    E S S S S S S E S S S S S S   E E E E E E E E
||------------------------------|-----------------|
||o-----------------------------|-----------------|
||------------------------------|-----------------|
||--7-------------8-------------|-----------------|
||o-5-------------6-------------|-----------------|
||----0-0-0-0-0-0---0-0-0-0-0-0-|-7-6-5-6-7-6-5-0-|


  D5            Eb5             F#5   A5G#5
    PM--------|   PM--------|     PM|
  E S S S S S S E S S S S S S   E E E E H     3x
|-----------------------------|---------------||
|-----------------------------|--------------o||
|-----------------------------|---------------||
|-7-------------8-------------|---------------||
|-5-------------6-------------|-4-----7-6----o||
|---0-0-0-0-0-0---0-0-0-0-0-0-|-2-0-0-5-4-----||


 Verse 1,2
  $
                                                B5
  PM------------------------------------------|
  S S S S S S S S S S S S S S S S   S S S S S S Q  Q.
|---------------------------------|---------------------|
|---------------------------------|---------------------|
|---------------------------------|---------------------|
|---------------------------------|-------------4--4----|
|-3-3-0-0-0-0-0-0-3-3-2-2-0-0-0-0-|-2-2-0-0-0-0-2--2----|
|---------------------------------|---------------------|


    F5                                          B5
      PM--------------------------------------|
    E S S S S S S S S S S S S S S   S S S S S S Q  Q.    3x
||--------------------------------|----------------------||
||o-------------------------------|---------------------o||
||--5-----------------------------|----------------------||
||--3-----------------------------|-------------4--4-----||
||o---0-0-0-0-0-0-3-3-2-2-0-0-0-0-|-2-2-0-0-0-0-2--2----o||
||--------------------------------|----------------------||


 Pre-Chorus
  D5                             C#B5C#5
     PM--------------------|
  Q  S S S S S S S S S S S S   E E E Q.   Q
|----------------------------|---------------|
|----------------------------|---------------|
|----------------------------|---------------|
|-7--------------------------|-7-6-4-6----6--|
|-5--5-5-5-5-5-5-5-5-5-5-5-5-|-5-4-2-4----4--|
|----------------------------|---------------|


  D5                             C#B5C#5
     PM--------------------|
  Q  S S S S S S S S S S S S   E E E Q.   Q
|----------------------------|-----------------|
|----------------------------|-----------------|
|----------------------------|-----------------|
|-7--------------------------|-7-6-4-6----6----|
|-5--5-5-5-5-5-5-5-5-5-5-5-5-|-5-4-2-4----4----|
|----------------------------|-----------------|


  D5                             C#B5C#5
     PM--------------------|
  Q  S S S S S S S S S S S S   E E E Q.   Q
|----------------------------|---------------|
|----------------------------|---------------|
|----------------------------|---------------|
|-7--------------------------|-7-6-4-6----6--|
|-5--5-5-5-5-5-5-5-5-5-5-5-5-|-5-4-2-4----4--|
|----------------------------|---------------|


                               Q=190
  D5                           D5BbA5C#A5G#5
     PM----------------------------------|
                               |-3-| |-3-|
  Q  S S S S S S S S S S S S   q q q q q q
|----------------------------|--------------|
|----------------------------|--------------|
|----------------------------|--------------|
|-7--------------------------|-7-----6------|
|-5--5-5-5-5-5-5-5-5-5-5-5-5-|-5-8-7-4-7-6--|
|----------------------------|---6-5---5-4--|


 Chorus
  Q=230
  E5                       D5        E5                       G#5
     PM------------------|   PM--|      PM------------------|
  Q  E E E E E E   E E E E E E E E   Q  E E E E E E   E E E E H
|----------------|-----------------|----------------|--------------|
|----------------|-----------------|----------------|--------------|
|----------------|-----------------|----------------|---------8----|
|-9--------------|---------7-------|-9--------------|---------6----|
|-7--------------|---------5-------|-7--------------|--------------|
|----7-6-5-0-5-6-|-7-6-5-0---7-6-5-|----7-6-5-0-5-6-|-7-6-5-0------|


                                                          To Coda
  E5                       D5        E5                       F5 G5
     PM------------------|   PM--|      PM------------------|
  Q  E E E E E E   E E E E E E E E   Q  E E E E E E   E E E E Q  Q
|----------------|-----------------|----------------|----------------|
|----------------|-----------------|----------------|----------------|
|----------------|-----------------|----------------|----------------|
|-9--------------|---------7-------|-9--------------|----------------|
|-7--------------|---------5-------|-7--------------|---------3--5---|
|----7-6-5-0-5-6-|-7-6-5-0---7-6-5-|----7-6-5-0-5-6-|-7-6-5-0-1--3---|


 Bridge
  $$
  D5            Eb5
    PM--------|   PM--------------------------|
  E S S S S S S E S S S S S S   E E E E E E E E
|-----------------------------|-----------------|
|-----------------------------|-----------------|
|-----------------------------|-----------------|
|-7-------------8-------------|-----------------|
|-5-------------6-------------|-----------------|
|---0-0-0-0-0-0---0-0-0-0-0-0-|-7-6-5-6-7-6-5-0-|


  D5            Eb5             F#5   A5G#5
    PM--------|   PM--------|     PM|
  E S S S S S S E S S S S S S   E E E E H
|-----------------------------|--------------|
|-----------------------------|--------------|
|-----------------------------|--------------|
|-7-------------8-------------|--------------|
|-5-------------6-------------|-4-----7-6----|
|---0-0-0-0-0-0---0-0-0-0-0-0-|-2-0-0-5-4----|


  D5            Eb5
    PM--------|   PM--------------------------|
  E S S S S S S E S S S S S S   E E E E E E E E
|-----------------------------|-----------------|
|-----------------------------|-----------------|
|-----------------------------|-----------------|
|-7-------------8-------------|-----------------|
|-5-------------6-------------|-----------------|
|---0-0-0-0-0-0---0-0-0-0-0-0-|-7-6-5-6-7-6-5-0-|


                                Q=Q=Q=Q=Q=Q=Q=56
                                  To Dbl. Coda
  D5            Eb5             F#5     G#5
    PM--------|   PM--------------------------|
  E S S S S S S E S S S S S S   E E E E E E E E
|-----------------------------|--------------------|
|-----------------------------|--------------------|
|-----------------------------|--------------------|
|-7-------------8-------------|--------------------|
|-5-------------6-------------|-4-4-4-4-6-6-6-6----|
|---0-0-0-0-0-0---0-0-0-0-0-0-|-2-2-2-2-4-4-4-4----|


 Chorus (continued)
  Q=230
  E5                       D5        E5                       G#5
     PM------------------|   PM--|      PM------------------|
  Q  E E E E E E   E E E E E E E E   Q  E E E E E E   E E E E H
|----------------|-----------------|----------------|--------------|
|----------------|-----------------|----------------|--------------|
|----------------|-----------------|----------------|---------8----|
|-9--------------|---------7-------|-9--------------|---------6----|
|-7--------------|---------5-------|-7--------------|--------------|
|----7-6-5-0-5-6-|-7-6-5-0---7-6-5-|----7-6-5-0-5-6-|-7-6-5-0------|


                                                     D.S. al Coda
  E5                       D5        E5                       F5 G5
     PM------------------|   PM--|      PM------------------|
  Q  E E E E E E   E E E E E E E E   Q  E E E E E E   E E E E Q  Q
|----------------|-----------------|----------------|----------------|
|----------------|-----------------|----------------|----------------|
|----------------|-----------------|----------------|----------------|
|-9--------------|---------7-------|-9--------------|----------------|
|-7--------------|---------5-------|-7--------------|---------3--5---|
|----7-6-5-0-5-6-|-7-6-5-0---7-6-5-|----7-6-5-0-5-6-|-7-6-5-0-1--3---|


 Interlude
  Slower Q.=125
  &
  E5                                       C#5
 12/8
  Gtr I
     PM----|    PM----|      PM----------|
  Q  E E E E Q  E E E E   Q  E E E E E E E Q.
|-----------------------|-----------------------|
|-----------------------|-----------------------|
|-----------------------|-----------------------|
|-2----------2----------|-2----------------6----|
|-2----------2----------|-2----------------4----|
|-0--0-0-0-0-0--0-0-0-0-|-0--0-0-0-0-0-0-0------|


  F#5                                      G5
     PM----|    PM----|      PM----------|
  Q  E E E E Q  E E E E   Q  E E E E E E E Q.
|-----------------------|------------------------|
|-----------------------|------------------------|
|-----------------------|------------------------|
|-----------------------|------------------------|
|-4----------4----------|-4----------------5-----|
|-2--2-2-2-2-2--2-2-2-2-|-2--2-2-2-2-2-2-2-3-----|


  E5                                       C#5
  Gtr I
     PM----|    PM----|      PM----------|
  Q  E E E E Q  E E E E   Q  E E E E E E E Q.
|-----------------------|-----------------------|
|-----------------------|-----------------------|
|-----------------------|-----------------------|
|-2----------2----------|-2----------------6----|
|-2----------2----------|-2----------------4----|
|-0--0-0-0-0-0--0-0-0-0-|-0--0-0-0-0-0-0-0------|
|
| Gtr II
| W                       W
|-----------------------|-----------------------|
|-----------------------|-----------------------|
|-----------------------|-----------------------|
|-----------------------|-----------------------|
|-----------------------|-----------------------|
|-----------------------|-----------------------|


  F#5                     F5         Eb5
     PM----|    PM--|        PM----|    PM------|
  Q  E E E E Q  E E E E   Q  E E E E Q  E  E  E E
|-----------------------|----------------------------|
|-----------------------|----------------------------|
|-----------------------|----------------------------|
|-----------------------|------------8---------------|
|-4----------4----------|-3----------6--6--6--6-6----|
|-2--2-2-2-2-2--2-2-2-2-|-1--1-1-1-1-----------------|
|
| W                       W             E  Q.
|-----------------------|----------------------------|
|-----------------------|----------------------------|
|-----------------------|----------------------------|
|-----------------------|----------------------------|
|-----------------------|----------------------------|
|-----------------------|-----------------12\--------|


  E5                                       C#5
  Gtrs I, II
     PM----|    PM----|      PM----------|
  Q  E E E E Q  E E E E   Q  E E E E E E E Q.
|-----------------------|-----------------------|
|-----------------------|-----------------------|
|-----------------------|-----------------------|
|-2----------2----------|-2----------------6----|
|-2----------2----------|-2----------------4----|
|-0--0-0-0-0-0--0-0-0-0-|-0--0-0-0-0-0-0-0------|


  F#5                                      G5
     PM----|    PM----|      PM----------|
  Q  E E E E Q  E E E E   Q  E E E E E E E Q.
|-----------------------|------------------------|
|-----------------------|------------------------|
|-----------------------|------------------------|
|-----------------------|------------------------|
|-4----------4----------|-4----------------5-----|
|-2--2-2-2-2-2--2-2-2-2-|-2--2-2-2-2-2-2-2-3-----|


  E5                                       C#5
     PM----|    PM----|      PM----------|
  Q  E E E E Q  E E E E   Q  E E E E E E E Q.
|-----------------------|-----------------------|
|-----------------------|-----------------------|
|-----------------------|-----------------------|
|-2----------2----------|-2----------------6----|
|-2----------2----------|-2----------------4----|
|-0--0-0-0-0-0--0-0-0-0-|-0--0-0-0-0-0-0-0------|


  F#5                     F5         Eb5
     PM----|    PM--|        PM----|    PM----|
  Q  E E E E Q  E E E E   Q  E E E E Q  E E E E
|-----------------------|--------------------------|
|-----------------------|--------------------------|
|-----------------------|--------------------------|
|-----------------------|------------8-------------|
|-4----------4----------|-3----------6--6-6-6-6----|
|-2--2-2-2-2-2--2-2-2-2-|-1--1-1-1-1---------------|


  E5                                                        C#5
  Gtrs I, II
        PM------|       PM------|         PM--------------|
   Q    E  E  E E  Q    E  E  E E    Q    E  E  E E  E  E E  Q.
|---------------------------------|----------------------------------|
|---------------------------------|----------------------------------|
|---------------------------------|----------------------------------|
|--2---------------2--------------|--2-----------------------6-------|
|--2---------------2--------------|--2-----------------------4-------|
|--0----0--0--0-0--0----0--0--0-0-|--0----0--0--0-0--0--0-0----------|
|
| Gtr III
|  PM-----------------------------------------------------------------
|  E  E E  E  E E  E  E E  E  E E    E  E E  E  E E  E  E E  E   E E
|---------------------------------|----------------------------------|
|---------------------------------|----------------------------------|
|-12-11-9---------12-11-9---------|-12-11-9---------12-11-9----------|
|---------12-11-9---------12-11-9-|---------12-11-9---------12--11-9-|
|---------------------------------|----------------------------------|
|---------------------------------|----------------------------------|


  F#5                                                              G5
         PM------|         PM------|           PM---------------|
   Q     E  E  E  E  Q     E  E  E  E    Q     E  E  E  E  E  E  E  Q.
|-------------------------------------|-----------------------------------------|
|-------------------------------------|-----------------------------------------|
|-------------------------------------|-----------------------------------------|
|-------------------------------------|-----------------------------------------|
|--4-----------------4----------------|--4--------------------------5-----------|
|--2-----2--2--2--2--2-----2--2--2--2-|--2-----2--2--2--2--2--2--2--3-----------|
|
|-------------------------------------------------------------------------|
|  E  E  E  E  E  E  E  E  E  E  E  E    E  E  E  E  E  E  E  E  E  E   E  E
|-------------------------------------|-----------------------------------------|
|-------------------------------------|-----------------------------------------|
|-14-12-11----------14-12-11----------|-14-12-11----------14-12-11--------------|
|----------14-12-11----------14-12-11-|----------14-12-11----------14--12-11----|
|-------------------------------------|-----------------------------------------|
|-------------------------------------|-----------------------------------------|


  E5                                                        C#5
        PM------|       PM------|         PM--------------|
   Q    E  E  E E  Q    E  E  E E    Q    E  E  E E  E  E E  Q.
|---------------------------------|----------------------------------|
|---------------------------------|----------------------------------|
|---------------------------------|----------------------------------|
|--2---------------2--------------|--2-----------------------6-------|
|--2---------------2--------------|--2-----------------------4-------|
|--0----0--0--0-0--0----0--0--0-0-|--0----0--0--0-0--0--0-0----------|
|
|  PM-----------------------------------------------------------------
|  E  E E  E  E E  E  E E  E  E E    E  E E  E  E E  E  E E  E   E E
|---------------------------------|----------------------------------|
|---------------------------------|----------------------------------|
|-12-11-9---------12-11-9---------|-12-11-9---------12-11-9----------|
|---------12-11-9---------12-11-9-|---------12-11-9---------12--11-9-|
|---------------------------------|----------------------------------|
|---------------------------------|----------------------------------|


  F#5                                   F5              Eb5
         PM------|         PM---|             PM------|       PM------|
   Q     E  E  E  E  Q     E  E  E  E    Q    E  E  E E  Q    E  E  E E
|-------------------------------------|------------------------------------|
|-------------------------------------|------------------------------------|
|-------------------------------------|------------------------------------|
|-------------------------------------|------------------8-----------------|
|--4-----------------4----------------|--3---------------6----6--6--6-6----|
|--2-----2--2--2--2--2-----2--2--2--2-|--1----1--1--1-1--------------------|
|
|---------------------------------------------------------------------|
|  E  E  E  E  E  E  E  E  E  E  E  E    E  E E  E  E E  E  E E  E  E E
|-------------------------------------|------------------------------------|
|-------------------------------------|------------------------------------|
|-14-12-11----------14-12-11----------|-12-11-9---------12-11-9------------|
|----------14-12-11----------14-12-11-|---------12-11-9---------12-11-9----|
|-------------------------------------|------------------------------------|
|-------------------------------------|------------------------------------|


  E5                                                                  C#5
  Gtrs I, II
   W.                                    +W                       +E   Q.
|--------------------------------------|----------------------------------------|
|--------------------------------------|----------------------------------------|
|--------------------------------------|----------------------------------------|
|--2-----------------------------------|-(2)----------------------(2)--6--------|
|--2-----------------------------------|-(2)----------------------(2)--4--------|
|--0-----------------------------------|-(0)----------------------(0)-----------|
|
| Gtr III
|  PM----------------------------------------------------------------------------
|  E   E  E  E  E  E  E  E  E  E  E  E    E   E  E  E  E  E  E  E  E   E   E  E
|--------------------------------------|----------------------------------------|
|--------------------------------------|----------------------------------------|
|-12--11--9----------12-11--9----------|-12--11--9----------12-11--9------------|
|-----------12-11--9----------12-11--9-|-----------12-11--9-----------12--11--9-|
|--------------------------------------|----------------------------------------|
|--------------------------------------|----------------------------------------|
|
| Gtr IV
|  PM----------------------------------------------------------------------------
|  E   E  E  E  E  E  E  E  E  E  E  E    E   E  E  E  E  E  E  E  E   E   E  E
|--------------------------------------|----------------------------------------|
|--------------------------------------|----------------------------------------|
|-16--14-12----------16-14-12----------|-16--14-12----------16-14-12------------|
|-----------16-14-12----------16-14-12-|-----------16-14-12-----------16--14-12-|
|--------------------------------------|----------------------------------------|
|--------------------------------------|----------------------------------------|


  F#5                                                                 G5
   W.                                    +W                       +E   Q.
|--------------------------------------|-------------------------------------------|
|--------------------------------------|-------------------------------------------|
|--------------------------------------|-------------------------------------------|
|--------------------------------------|-------------------------------------------|
|--4-----------------------------------|-(4)----------------------(4)--5-----------|
|--2-----------------------------------|-(2)----------------------(2)--3-----------|
|
|----------------------------------------------------------------------------|
|  E   E  E  E  E  E  E  E  E  E  E  E    E   E  E  E  E  E  E  E  E   E   E  E
|--------------------------------------|-------------------------------------------|
|--------------------------------------|-------------------------------------------|
|-14--12-11----------14-12-11----------|-14--12-11----------14-12-11---------------|
|-----------14-12-11----------14-12-11-|-----------14-12-11-----------14--12-11----|
|--------------------------------------|-------------------------------------------|
|--------------------------------------|-------------------------------------------|
|
|----------------------------------------------------------------------------|
|  E   E  E  E  E  E  E  E  E  E  E  E    E   E  E  E  E  E  E  E  E   E   E  E
|--------------------------------------|-------------------------------------------|
|--------------------------------------|-------------------------------------------|
|-17--16-14----------17-16-14----------|-17--16-14----------17-16-14---------------|
|-----------17-16-14----------17-16-14-|-----------17-16-14-----------17--16-14----|
|--------------------------------------|-------------------------------------------|
|--------------------------------------|-------------------------------------------|


  E5                                                                  C#5
   W.                                    +W                       +E   Q.
|--------------------------------------|----------------------------------------|
|--------------------------------------|----------------------------------------|
|--------------------------------------|----------------------------------------|
|--2-----------------------------------|-(2)----------------------(2)--6--------|
|--2-----------------------------------|-(2)----------------------(2)--4--------|
|--0-----------------------------------|-(0)----------------------(0)-----------|
|
|  PM----------------------------------------------------------------------------
|  E   E  E  E  E  E  E  E  E  E  E  E    E   E  E  E  E  E  E  E  E   E   E  E
|--------------------------------------|----------------------------------------|
|--------------------------------------|----------------------------------------|
|-12--11--9----------12-11--9----------|-12--11--9----------12-11--9------------|
|-----------12-11--9----------12-11--9-|-----------12-11--9-----------12--11--9-|
|--------------------------------------|----------------------------------------|
|--------------------------------------|----------------------------------------|
|
|  PM----------------------------------------------------------------------------
|  E   E  E  E  E  E  E  E  E  E  E  E    E   E  E  E  E  E  E  E  E   E   E  E
|--------------------------------------|----------------------------------------|
|--------------------------------------|----------------------------------------|
|-16--14-12----------16-14-12----------|-16--14-12----------16-14-12------------|
|-----------16-14-12----------16-14-12-|-----------16-14-12-----------16--14-12-|
|--------------------------------------|----------------------------------------|
|--------------------------------------|----------------------------------------|


  F#5                                    F5                 Eb5
   W.                                     H.                 H.
|--------------------------------------|------------------------------------------|
|--------------------------------------|------------------------------------------|
|--------------------------------------|------------------------------------------|
|--------------------------------------|---------------------8--------------------|
|--4-----------------------------------|--3------------------6--------------------|
|--2-----------------------------------|--1---------------------------------------|
|
|---------------------------------------------------------------------------|
|  E   E  E  E  E  E  E  E  E  E  E  E    E   E  E  E  E  E  E   E  E  E  E  E
|--------------------------------------|------------------------------------------|
|--------------------------------------|------------------------------------------|
|-14--12-11----------14-12-11----------|-12--11--9----------12--11--9-------------|
|-----------14-12-11----------14-12-11-|-----------12-11--9-----------12-11--9----|
|--------------------------------------|------------------------------------------|
|--------------------------------------|------------------------------------------|
|
|---------------------------------------------------------------------------|
|  E   E  E  E  E  E  E  E  E  E  E  E    E   E  E  E  E  E  E   E  E  E  E  E
|--------------------------------------|------------------------------------------|
|--------------------------------------|------------------------------------------|
|-17--16-14----------17-16-14----------|-16--14-12----------16--14-12-------------|
|-----------17-16-14----------17-16-14-|-----------16-14-12-----------16-14-12----|
|--------------------------------------|------------------------------------------|
|--------------------------------------|------------------------------------------|


 Guitar Solo 1
  E5                                                C#5
  Gtrs I, II
       PM----|    PM----|         PM----------|
   Q   E E E E Q  E E E E     Q   E E E E E E   E   Q.
|-------------------------|------------------------------|
|-------------------------|------------------------------|
|-------------------------|------------------------------|
|--2-----------2----------|---2---------------------6----|
|--2-----------2----------|---2---------------------4----|
|--0---0-0-0-0-0--0-0-0-0-|---0---0-0-0-0-0-0---0--------|
|
| Gtr III
|  ~~~~~~~~~~~~~~~~~~~~~~~~~~~~~~
|  W.                         W                +H
|-------------------------|------------------------------|
|-------------------------|------------------------------|
|-12----------------------|-[12]--------------(12)\------|
|-------------------------|------------------------------|
|-------------------------|------------------------------|
|-------------------------|------------------------------|


  F#5                                                         G5
        PM-----|      PM-----|        PM--------------|
    Q   E E  E E  Q   E E  E E    Q   E E  E E   E  E   E     Q.
|------------------------------|---------------------------------------|
|------------------------------|---------------------------------------|
|------------------------------|---------------------------------------|
|------------------------------|---------------------------------------|
|---4-------------4------------|--4---------------------------5--------|
|---2---2-2--2-2--2---2-2--2-2-|--2---2-2--2-2---2--2---2-----3--------|
|
|   Q   Q    Q    Q   Q    Q      Q   Q    Q     Q      Q         Q
|------------------------------|---------------------------------------|
|-/12--14---15---14--12--------|---------------------------------------|
|-------------------------12---|-11--12---11---[12]---[12]b13r===12----|
|------------------------------|---------------------------------------|
|------------------------------|---------------------------------------|
|------------------------------|---------------------------------------|


  E5                                          C#5
      PM----|     PM----|       PM----------|
  Q   E E E E Q   E E E E   Q   E E E E E E E Q.
|-------------------------|--------------------------|
|-------------------------|--------------------------|
|-------------------------|--------------------------|
|-2-----------2-----------|-2-----------------6------|
|-2-----------2-----------|-2-----------------4------|
|-0---0-0-0-0-0---0-0-0-0-|-0---0-0-0-0-0-0-0--------|
|
| PM-----------------------------------------------|
| E E E E E E E E E E E E   E E E E E E E E E E  E E
|-------------------------|--------------------------|
|-5-4-2-------------------|--------------------------|
|-------5-3-2-------------|-5-3-2--------------------|
|-------------5-4-2-------|-------5-4-2--------------|
|-------------------5-4-2-|-------------5-4-2--------|
|-------------------------|-------------------5--4-2-|


  F#5                                 F5               Eb5
        PM-------|       PM---|             PM-------|       PM-------|
   Q    E  E  E  E  Q    E  E  E  E    Q    E  E  E  E  Q    E  E  E  E
|-----------------------------------|--------------------------------------|
|-----------------------------------|--------------------------------------|
|-----------------------------------|--------------------------------------|
|-----------------------------------|-------------------8------------------|
|--4----------------4---------------|--3----------------6----6--6--6--6----|
|--2----2--2--2--2--2----2--2--2--2-|--1----1--1--1--1---------------------|
|
|  Q    Q     Q     Q    Q     Q       Q    Q     Q     Q    Q     Q
|-----------------------------------|--------------------------------------|
|------<5>--------------------------|--------------------------------------|
|-<5>--------------<5>--------------|--------------------------------------|
|------------<5>--------------<5>---|------------<5>--------<5>------------|
|-----------------------<5>---------|------<5>---------<5>--------<5>------|
|-----------------------------------|-<5>----------------------------------|


 Guitar Solo 2
  Q=210
                        D5 EbD5
 4/4
          PM--------|           PM--------|
   E E  E E  E E  E E    E E  E E  E E  E E
|---------------------|---------------------|
|---------------------|---------------------|
|---------------------|---------------------|
|---------------------|--7S8--7-------------|
|--8-8--7-------------|--5S6--5-------------|
|---------0--0-0--0-0-|---------0--0-0--0-0-|
|
|  TP   TP   TP   TP     TP   TP   TP   ~~
|  Q    Q    Q    Q      Q    Q    Q    Q
|---------------------|---------------------|
|---------------------|---------------------|
|---------------------|------14-------------|
|-14---16---17---16---|-17--------17---16---|
|---------------------|---------------------|
|---------------------|---------------------|


                        D5 EbD5
          PM--------|           PM--------|
   E E  E E  E E  E E    E E  E E  E E  E E
|---------------------|---------------------|
|---------------------|---------------------|
|---------------------|---------------------|
|---------------------|--7S8--7-------------|
|--8-8--7-------------|--5S6--5-------------|
|---------0--0-0--0-0-|---------0--0-0--0-0-|
|
|  TP   TP   TP   TP     TP   TP   TP   ~~
|  Q    Q    Q    Q      Q    Q    Q    Q
|---------------------|------17-------------|
|-17---19---20---19---|-20--------20---19---|
|---------------------|---------------------|
|---------------------|---------------------|
|---------------------|---------------------|
|---------------------|---------------------|


  F#5                             B5       C5
        PM--------------------|               PM----------|
   E    E  E  E    E  E  E    E    E  E    E  E  E    E E E
|-------------------------------|---------------------------|
|-------------------------------|---------------------------|
|-------------------------------|---------------------------|
|-------------------------------|--4--4----5----------------|
|--4----------------------------|--2--2----3--0--0----0-0-0-|
|--2----2--2--2----2--2--2----2-|---------------------------|
|
|  Q       E  Q       E  Q         E  Q       E  H
|---------14---------14---------|-14---------14-------------|
|-17b19------17b19------17b19---|----17b19------17b19-------|
|-------------------------------|---------------------------|
|-------------------------------|---------------------------|
|-------------------------------|---------------------------|
|-------------------------------|---------------------------|


  F#5                   B5   C5
     PM-------------|           PM---------|
   E E  E E  E E  E E    E E  E E  E E  E  E
|---------------------|-----------------------|
|---------------------|-----------------------|
|---------------------|-----------------------|
|---------------------|--4-4--5---------------|
|--4------------------|--2-2--3-0--0-0--0--0--|
|--2-2--2-2--2-2--2-2-|-----------------------|
|
|  TP   TP   TP   TP     TP   TP   TP
|  Q    Q    Q    Q      Q    Q    Q    Q
|-17---15---14--------|-----------------------|
|----------------17---|-15---14---------------|
|---------------------|-----------16---14\----|
|---------------------|-----------------------|
|---------------------|-----------------------|
|---------------------|-----------------------|


  F#5                      B5      C5
        PM-------------|             PM---------|
   E    E E E E E   E  E    E    E E E E E   E  E
|------------------------|------------------------|
|------------------------|------------------------|
|------------------------|------------------------|
|------------------------|--4----4-5--------------|
|--4---------------------|--2----2-3-0-0-0---0--0-|
|--2----2-2-2-2-2---2--2-|------------------------|
|
|  H.              +Q       H.              +Q
|------------------------|-16b18r==========(16)---|
|------------------------|------------------------|
|-16b18r==========(16)---|------------------------|
|------------------------|------------------------|
|------------------------|------------------------|
|------------------------|------------------------|


  F#5                B5   C5
     PM----------|          PM------|
  E  E E E E E E E    E E E E E E E E
|------------------|-------------------|
|------------------|-------------------|
|------------------|-------------------|
|------------------|--4-4-5------------|
|-4----------------|--2-2-3-0-0-0-0-0--|
|-2--2-2-2-2-2-2-2-|-------------------|
|
| \4
|                     ~~
| W                   W
|------------------|-18----------------|
|------------------|-------------------|
|------------------|-------------------|
|------------------|-------------------|
|------------------|-------------------|
|-0----------------|-------------------|


   Verse 3
                      D5EbD5
    Gtrs I, II
          PM------|         PM---------
    E E E E E E E E   E E E E E E E E
||------------------|-----------------|
||o-----------------|-----------------|
||------------------|-----------------|
||------------------|-7S8-7-----------|
||o-8-8-7-----------|-5S6-5-----------|
||--------0-0-0-0-0-|-------0-0-0-0-0-|


 ---------------------------------|  ~
   E E E  E E E  E E   E  E E E E  E Q
|--------------------|-------------------||
|--------------------|------------------o||
|--------------------|-------------------||
|--------10-8-7------|-------------------||
|-10-8-7--------10-8-|-7-------------7--o||
|--------------------|---10-8-7-8-10-----||


    F#5               B5  C5            F#5               B5  C5
          PM------|         PM------|         PM------|         PM------|
    E E E E E E E E   E E E E E E E E   E E E E E E E E   E E E E E E E E
||------------------|-----------------|-----------------|------------------||
||o-----------------|-----------------|-----------------|-----------------o||
||------------------|-----------------|-----------------|------------------||
||------------------|-4-4-5-----------|-----------------|-4-4-5------------||
||o-4-4-4-----------|-2-2-3-0-0-0-0-0-|-4-4-4-----------|-2-2-3-0-0-0-0-0-o||
||--2-2-2-2-2-2-2-2-|-----------------|-2-2-2-2-2-2-2-2-|------------------||


  D5            Eb5
    PM--------|   PM------------------------------------------|
  E S S S S S S E S S S S S S   S S S S S S S S S S S S S S S S
|-----------------------------|---------------------------------|
|-----------------------------|---------------------------------|
|-----------------------------|---------------------------------|
|-7-------------8-------------|---------------------------------|
|-5-------------6-------------|---------------------------------|
|---0-0-0-0-0-0---0-0-0-0-0-0-|-0-0-0-0-0-0-0-0-0-0-0-0-0-0-0-0-|


  D5            Eb5             E5        A5Bb5
    PM--------|   PM--------|     PM----|
  E S S S S S S E S S S S S S   E S S S S E  H
|-----------------------------|-------------------|
|-----------------------------|-------------------|
|-----------------------------|-----------9-10----|
|-7-------------8-------------|-9---------7--8----|
|-5-------------6-------------|-7-----------------|
|---0-0-0-0-0-0---0-0-0-0-0-0-|---0-0-0-0---------|


  D5            Eb5
    PM--------|   PM------------------------------------------|
  E S S S S S S E S S S S S S   S S S S S S S S S S S S S S S S
|-----------------------------|---------------------------------|
|-----------------------------|---------------------------------|
|-----------------------------|---------------------------------|
|-7-------------8-------------|---------------------------------|
|-5-------------6-------------|---------------------------------|
|---0-0-0-0-0-0---0-0-0-0-0-0-|-0-0-0-0-0-0-0-0-0-0-0-0-0-0-0-0-|


  D5            Eb5             E5        A5G#5
    PM--------|   PM--------|     PM----|
  E S S S S S S E S S S S S S   E S S S S E H
|-----------------------------|------------------|
|-----------------------------|------------------|
|-----------------------------|-----------9-8----|
|-7-------------8-------------|-9---------7-6----|
|-5-------------6-------------|-7----------------|
|---0-0-0-0-0-0---0-0-0-0-0-0-|---0-0-0-0--------|


 Intro Riff
  Faster Q=230
  D5             Eb5
  Gtr I
    PM---------|   PM--------------------------|
  E S S S  S S S E S S S S S S   E E E E E E E E
|------------------------------|-----------------|
|------------------------------|-----------------|
|------------------------------|-----------------|
|-7--------------8-------------|-----------------|
|-5--------------6-------------|-----------------|
|---0-0-0--0-0-0---0-0-0-0-0-0-|-7-6-5-6-7-6-5-0-|
|
| Gtr II
| E E   H.                       W
|------------------------------|-----------------|
|------------------------------|-----------------|
|------------------------------|-----------------|
|-7----------------------------|-----------------|
|-5----------------------------|-----------------|
|------------------------------|-----------------|


                         D.S.S. al Dbl. Coda
  D5             Eb5             F#5    A5G#5
    PM---------|   PM--------|      PM|
  E S S S  S S S E S S S S S S   E  E E E H
|------------------------------|----------------|
|------------------------------|----------------|
|------------------------------|----------------|
|-7--------------8-------------|----------------|
|-5--------------6-------------|-4------7-6-----|
|---0-0-0--0-0-0---0-0-0-0-0-0-|-2--0-0-5-4-----|
|
| E E   H.                       Q.     E H
|------------------------------|----------------|
|------------------------------|----------------|
|------------------------------|----------------|
|-7----------------------------|----------------|
|-5----------------------------|--------7-6-----|
|------------------------------|--------5-4-----|


              Out-Chorus
  Q=230
  &&
               E5                       D5
  Gtrs I, II
                  PM------------------|   PM--|
  Wx2          Q  E E E E E E   E E E E E E E E
|------------|----------------|-----------------|
|------------|----------------|-----------------|
|------------|----------------|-----------------|
|------------|-9--------------|---------7-------|
|------------|-7--------------|---------5-------|
|------------|----7-6-5-0-5-6-|-7-6-5-0---7-6-5-|


  E5                       G#5
     PM------------------|
  Q  E E E E E E   E E E E H
|----------------|--------------|
|----------------|--------------|
|----------------|---------8----|
|-9--------------|---------6----|
|-7--------------|--------------|
|----7-6-5-0-5-6-|-7-6-5-0------|


  E5                       D5
     PM------------------|   PM--|
  Q  E E E E E E   E E E E E E E E
|----------------|-----------------|
|----------------|-----------------|
|----------------|-----------------|
|-9--------------|---------7-------|
|-7--------------|---------5-------|
|----7-6-5-0-5-6-|-7-6-5-0---7-6-5-|


  E5                       F5 G5   E5
     PM------------------|
  Q  E E E E E E   E E E E Q  Q    Q  H.
|----------------|---------------|----------*|
|----------------|---------------|----------*|
|----------------|---------------|----------*|
|-9--------------|---------------|----------*|
|-7--------------|---------3--5--|-2--------*|
|----7-6-5-0-5-6-|-7-6-5-0-1--3--|-0--------*|



Duration Legend
---------------
W - whole; H - half; Q - quarter; E - 8th; S - 16th; T - 32nd; X - 64th; a - acciaccatura
+ - note tied to previous; . - note dotted; .. - note double dotted
Uncapitalized letters represent notes that are staccato (1/2 duration)
Irregular groupings are notated above the duration line
Duration letters will always appear directly above the note/fret number it represents the
duration for.  Duration letters with no fret number below them represent rests.  Multi-
bar rests are notated in the form Wxn, where n is the number of bars to rest for.  Low
melody durations appear below the staff

Tablature Legend
----------------
 h   - hammer-on
 p   - pull-off
 b   - bend
 pb  - pre-bend
 r   - bend release (if no number after the r, then release immediately)
 /\  - slide into or out of (from/to "nowhere")
 s   - legato slide
 S   - shift slide
 - natural harmonic
[n]  - artificial harmonic
n(n) - tapped harmonic
 ~   - vibrato
 tr  - trill
 T   - tap
 TP  - trem. picking
 PM  - palm muting
\n/  - tremolo bar dip; n = amount to dip
 \n  - tremolo bar down
 n/  - tremolo bar up
/n\  - tremolo bar inverted dip
 =   - hold bend; also acts as connecting device for hammers/pulls
 <> - volume swell (louder/softer)
 x   - on rhythm slash represents muted slash
 o   - on rhythm slash represents single note slash

Misc Legend
-----------
 |  - bar
||  - double bar
||o - repeat start
o|| - repeat end
*|  - double bar (ending)
 :  - bar (freetime)
 $  - Segno
 &  - Coda
Tempo markers -  = BPM(8/16=s8/s16), where s8 = swing 8ths, s16 = swing 16ths

Tap to rate this tab
 
# A B C D E F G H I J K L M N O P Q R S T U V W X Y Z