Song name
# A B C D E F G H I J K L M N O P Q R S T U V W X Y Z

Kreator - Prevail tab

Kreator
Prevail
Cause of Conflict
Tabbed By Kevin Cruz

Standard tunning

E:--------------|--------------|--------------|--------------|------|
B:--------------|--------------|--------------|--------------|------|
G:--------------|--------------|--------------|--------------|--4X--|
D:--------------|--------------|--------------|--------------|------|
A:--2--2-2-2-3--|--2--2-2-2-3--|--2--2-2-2-3--|--2--2-2-2-3--|------|
E:--0--0-0-0-1--|--0--0-0-0-1--|--0--0-0-0-1--|--0--0-0-0-1--|------|
    .  . . .       .  . . .       .  . . .       .  . . . 

E:------------------------------|-------------------------------|------|
B:------------------------------|-------------------------------|------|
G:------------------------------|-------------------------------|--2X--|
D:------------------------------|-------------------------------|------|
A:--2------2------2------2-5-5--|--2------2------2------2-3-3---|------|
E:--0--0-0-0--0-0-0--0-0-0-0-0--|--0--0-0-0--0-0-0--0-0-0-0-0---|------|
       . .    . .    . .              . .    . .    . .    

thIS IS ALL I'VE fIGURED OUT
Tap to rate this tab
# A B C D E F G H I J K L M N O P Q R S T U V W X Y Z