Song name
# A B C D E F G H I J K L M N O P Q R S T U V W X Y Z

Kreator - Catholics Despot tab

Kreator
Catholics Despot
Cause for Conflict
Tabbed By Kevin Cruz

Standard Tunning

E:------------------------------|-------------------------------|------|
B:------------------------------|-------------------------------|------|
G:------------------------------|-------------------------------|------|
D:------------------------------|-------------------------------|--2X--|
A:------3------4------5------6--|------3------4------5------6---|------|
E:--0-1----0-2----0-3----0-4----|--0-1----0-2----0-3----0-4-----|------|
    . .    . .    . .    . .       . .    . .    . .    . .

E:-----|-------------------------------------------------------------|----|
B:-----|-------------------------------------------------------------|----|
G:-----|-------------------------------------------------------------|-2X-|
D:-----|-------------------------------------------------------------|----|
A:-5-5-|---------------5---------------5---------------5---------3-2-|----|
E:-3-3-|-0-0-0-0-0-0-3---0-0-0-0-0-0-3---0-0-0-0-0-0-3---0-0-0-0-1-0-|----|
   . .   . . . . . . .   . . . . . . .   . . . . . . .   . . . .     

i'LL wRITE rEST lATER ;)
Tap to rate this tab
# A B C D E F G H I J K L M N O P Q R S T U V W X Y Z