Song name
# A B C D E F G H I J K L M N O P Q R S T U V W X Y Z

Kreator - Suicide Terrorist tab

intro
D|---------------------------------------------------------------|
A|---------------------------------------------------------------|
F|---------------------------------------------------------------|
C|----------------------------9------8---------------------------|
G|-------7-----9--7-----9-10-----10------------------------------|
D|-0000-----00---0---00------------------------------------------|

|---------------------------------------------------------------|
|---------------------------------------------------------------|
|---------------------------------------------------------------|
|----------------------------9------12--------------------------|
|-------7-----9--7-----9-10-----10------------------------------|
|-0000-----00---0---00------------------------------------------|


|---------------------------------------------------------------|
|---------------------------------------------------------------|
|---------------------------------------------------------------|
|----------------------------9------8---------------------------|
|-------7-----9--7-----9-10-----10------------------------------|
|-0000-----00---0---00------------------------------------------|


|---------------------------------------------------------------|
|---------------------------------------------------------------|
|---------------------------------------------------------------|
|--------------10-9-7---12-10-9---------------------------------|
|-------7-------------8---------11------------------------------|
|-0000-----00---------------------------------------------------|

This is my very first tab and it sounds awsome.
Tap to rate this tab
 
# A B C D E F G H I J K L M N O P Q R S T U V W X Y Z