Guitaretab - guitar tabs
Song name
# A B C D E F G H I J K L M N O P Q R S T U V W X Y Z

Kris Allen - Falling Slowly tab

Title: Falling Slowly	
Artist: Kris Allen






Intro:
   
e---------------0--------------------------1----------0-----|
B--------3------------3-----------3-------------------------|
G-----0------0-----0-----0-----0-----0-------0-----------0--|
D-----------------------------------------------------------|
A--3--------------------------------------------------------|
E----------------------------1------------------------------|
   
e----------------0------------------------------------------|
B--------3------------3------1---------1------1------1------|
G-----0------0-----0-----0---------0-------0------0-----0---|
D-----------------------------------------------------------|
A--3--------------------------------------------------------|
E----------------------------1------------------------------|



Verse 1:
e---------------0--------------------------1----------0-----|
B--------3------------3-----------3-------------------------|
G-----0------0-----0-----0-----0-----0-------0-----------0--|
D-----------------------------------------------------------|
A--3--------------------------------------------------------|
E----------------------------1------------------------------|
   I   donít  know   you,    but  I       want       you
e----------------0------------------------------------------|
B--------3------------3------1---------1------1------1------|
G-----0------0-----0-----0---------0-------0------0-----0---|
D-----------------------------------------------------------|
A--3--------------------------------------------------------|
E----------------------------1------------------------------|
   All  the more for that


e---------------0--------------------------1----------0-----|
B--------3------------3-----------3-------------------------|
G-----0------0-----0-----0-----0-----0-------0-----------0--|
D-----------------------------------------------------------|
A--3--------------------------------------------------------|
E----------------------------1------------------------------|
   Words fall through me,   and  always  fool         me
e----------------0------------------------------------------|
B--------3------------3------1---------1------1------1------|
G-----0------0-----0-----0---------0-------0------0-----0---|
D-----------------------------------------------------------|
A--3--------------------------------------------------------|
E----------------------------1------------------------------|
   And   I      canít react


E--------0------------------------------------------0-------|
B-------------3-------3------0------3----1----0-------------|
G------2---2----2---2----2------2------------------------2--|
D-----------------------------------------------------------|
A--0---------------------------------------------------0----|
E-------------3--------1------------3-----------------------|

     And games that never amount To more than theyíre meant
                                 ^   ^ ^  vvv  ^v^  ( ^ = down ,v = up ) 
E--0--------------------------1------1-1--111--111----------|
B--------0----1----0---------1-1-----1-1--111--111----------|
G----2----------------2-----2---2----2-2--222--222----------|
D--------------------------3-----3---3-3--333--333----------|
A--------------------------------3---3-3--333--333----------|
E--------3---------------3-----------1-1--111--111----------|
[ Tab from: http://www.guitaretab.com/k/kris-allen/187338.html ]
  Will play themselves out


Chorus:
C        
Take this sinking
Am   
Boat and point it
F-FM7  
Home weíve still got time
C    
Raise your hopeful
Am    
Voice you had a
F                  C9
Choice you make it now

Verse 2:
e---------------0--------------------------1----------0-----|
B--------3------------3-----------3-------------------------|
G-----0------0-----0-----0-----0-----0-------0-----------0--|
D-----------------------------------------------------------|
A--3--------------------------------------------------------|
E----------------------------1------------------------------|
  Falling      slowly,       eyes that   know           me
e----------------0------------------------------------------|
B--------3------------3------1---------1------1------1------|
G-----0------0-----0-----0---------0-------0------0-----0---|
D-----------------------------------------------------------|
A--3--------------------------------------------------------|
E----------------------------1------------------------------|
   And  I canít go  back
e---------------0--------------------------1----------0-----|
B--------3------------3-----------3-------------------------|
G-----0------0-----0-----0-----0-----0-------0-----------0--|
D-----------------------------------------------------------|
A--3--------------------------------------------------------|
E----------------------------1------------------------------|
   And moods that take me,   and     erase            me
e----------------0------------------------------------------|
B--------3------------3------1---------1------1------1------|
G-----0------0-----0-----0---------0-------0------0-----0---|
D-----------------------------------------------------------|
A--3--------------------------------------------------------|
E----------------------------1------------------------------|
   And Iím painted  black

E--------0------------------------------------------0-------|
B-------------3-------3------0------3----1----0-------------|
G------2---2----2---2----2------2------------------------2--|
D-----------------------------------------------------------|
A--0---------------------------------------------------0----|
E-------------3--------1------------3-----------------------|
   Well you have suffered enough And warred with yourself
                                 ^   ^ ^  vvv  ^v^   ( ^ = down ,v = up ) 
E--0--------------------------1------1-1--111--111----------|
B--------0----1----0---------1-1-----1-1--111--111----------|
G----2----------------2-----2---2----2-2--222--222----------|
D--------------------------3-----3---3-3--333--333----------|
A--------------------------------3---3-3--333--333----------|
E--------3---------------3-----------1-1--111--111----------|
Itís time that you won    (ooh... . ohh..)

Chorus:
C        
Take this sinking
Am   
Boat and point it
F-FM7  
Home weíve still got time
C    
Raise your hopeful
Am    
Voice you had a
F                  C
Choice you make it now

CM7    
Fall ing    slowly,
GM7               Am7
sing your   melody
FM7
Iíll     sing       along.. (end With C)

************************************************************
If you want to play it perfectly you can Play it with Piano

For Violent reaction just keep It in yourself

Peace^^
************************************************************
Related for Falling Slowly tab