Song name
# A B C D E F G H I J K L M N O P Q R S T U V W X Y Z

Kris Allen - Cant Stay Away tab

-----------------------------------------------------------------------------
			     Cant Stay Away - Kris Allen
-----------------------------------------------------------------------------

Tabbed by:XxGuitarZer0xX

Email:Spongebobs400s@hotmail.com

Tuning:Standard


This is 100% correct, and tabbed by ear.





Intro -
e|-------------------------------------------------------------|
B|-----10101010-----------9999---------10101010-----------9999-|
G|-----7-7-7-7------------7777---------7-7-7-7------------7777-|
D|-------------------------------------------------------------|
A|--------------5/8-5-5-7-----------------------5/8-5-5-7------|
E|-5-7-------------------------5-5-5-7-------------------------|




Verse - 
e|-------------------------------------------------------------|
B|-----10101010-----------9999---------10101010-----------9999-|
G|-----7-7-7-7------------7777---------7-7-7-7------------7777-|
D|-------------------------------------------------------------| x2
A|--------------5/8-5-5-7-----------------------5/8-5-5-7------|
E|-5-7-------------------------5-5-5-7-------------------------|





Chorus -
e|-------------------------------------------------------------------------------------|
B|-------------------------------------------------------------------------------------|
G|----------7777-----------------7777-----------------7777-----------------------------|
D|-----5555-7777-7777-99-77-5555-7777-7777-99-77-5555-7777-7777-99-77-55555555-7777-9/-|
A|-----5555-5555-7777-99-77-5555-5555-7777-99-77-5555-5555-7777-99-77-55555555-7777-9/-|
E|-0-2-3333------5555-77-55-3333------5555-77-55-3333------5555-77-55-33333333-5555-7/-|





Post Chorus -
e|---------------------------------------|
B|---------------------------------------|
G|---------------------------------------|
D|---------------------------------------|
A|-0-2--4-5-------0--2--0-2--4-5-------0-|
E|-----------2-3------------------2-3----|





Verse - 
e|-------------------------------------------------------------|
B|-----10101010-----------9999---------10101010-----------9999-|
G|-----7-7-7-7------------7777---------7-7-7-7------------7777-|
D|-------------------------------------------------------------| x2
A|--------------5/8-5-5-7-----------------------5/8-5-5-7------|
E|-5-7-------------------------5-5-5-7-------------------------|





Chorus -
e|-------------------------------------------------------------------------------------|
B|-------------------------------------------------------------------------------------|
G|----------7777-----------------7777-----------------7777-----------------------------|
D|-----5555-7777-7777-99-77-5555-7777-7777-99-77-5555-7777-7777-99-77-55555555-7777-9/-|
A|-----5555-5555-7777-99-77-5555-5555-7777-99-77-5555-5555-7777-99-77-55555555-7777-9/-|
E|-0-2-3333------5555-77-55-3333------5555-77-55-3333------5555-77-55-33333333-5555-7/-|





Post Chorus -
e|----------------------------------------|
B|----------------------------------------|
G|-------------------------------------2--|
D|-------------------------------------2--|
A|-0-2--4-5-------0--2--0-2--4-5-------0--|
E|-----------2-3------------------2-3-----|




Bridge
e|-0~-2~-------------0~-2~---3~-2~-----|
B|-0~-3~-------------0~-3~---3~-2~-----|
G|-1~-4~-3~----------1~-4~-2-0~-2~-----|
D|-2~-4~-4~----------2~-4~-2-0~-4~-4-4-|
A|-2~-2~-1~-2-4-5-7~-2~-2~-0-2~-4~-4-4-|
E|-0~----------------0~------3~-2~-2-2-|




Post Bridge
e|------------------------------|
B|-----10101010-----------9999/-|
G|-----7-7-7-7------------7777/-|
D|------------------------------|
A|--------------5/8-5-5-7-------|
E|-5-7--------------------------|





Chorus -
e|-------------------------------------------------------------------------------------|
B|-------------------------------------------------------------------------------------|
G|----------7777-----------------7777-----------------7777-----------------------------|
D|-----5555-7777-7777-99-77-5555-7777-7777-99-77-5555-7777-7777-99-77-55555555-7777-9/-|
A|-----5555-5555-7777-99-77-5555-5555-7777-99-77-5555-5555-7777-99-77-55555555-7777-9/-|
E|-0-2-3333------5555-77-55-3333------5555-77-55-3333------5555-77-55-33333333-5555-7/-|





Post Chorus - Outro
e|---------------------------------------------------------------------------------|
B|---------------------------------------------------------------------------------|
G|---------------------------------------------------------------------------------|
D|---------------------------------------------------------------------------------|
A|-0-2--4-5-------0--2--0-2--4-5-------0--2--0-2--4-5-------0--2--0-2--4-5---------|
E|-----------2-3------------------2-3------------------2-3------------------2-3--5-|



Tap to rate this tab
# A B C D E F G H I J K L M N O P Q R S T U V W X Y Z