Song name
# A B C D E F G H I J K L M N O P Q R S T U V W X Y Z

Kris Allen - Bring It Back chords

Highlighted       Show chord diagrams
-----------------------------------------------------------------------------
			     Bring It Back - Kris Allen
-----------------------------------------------------------------------------

Tabbed by:XxGuitarZer0xX

Email:Spongebobs400s@hotmail.com

Tuning:Standard



Chords used - the only open chord is the E making this a kinda of a kard song to play.

   B B/Bb  G# B/F#  E D#m C#m F#
e|------------------0--6---4---2-|
B|------------------0--7---5---2-|
G|-4--3--------3----1--8---6---3-|
D|-4--4----6---4----2--8---6---4-|
A|-2--1----6---x----2--6---4---4-|
E|---------4---2----0----------2-|







Intro 
e|----------------------------|
B|----------------------------|
G|---3----3----3----3----3----|
D|--4-4--4-4--4-4--4-4--4-4---|
A|-2----1--------------2------|
E|-----------4----2---------0-|



B   B/Bb  G#
Unspoken, in silence
B/F#   B          E
Let's stay here tonight
B          B/Bb  G#
there's no reason to ask me
B/F#       B            E
Cause you know what's inside


E (Continue strumming the E chord throughout the Pre chorus)
Don't worry now
            
Seasons will change

Forgive my mouth

For not letting you walk away


G#            B           E
Take your love, bring it back

Bring it back
D#m     B         E
Think before you leave
G#     B 
I forgot what love is
E
Bring it back
D#m           B     E
Tell me that you believe
F#
What fate has been telling me


Post Chorus 
Intro 
e|----------------------------|
B|----------------------------|
G|---3----3----3----3----3----|
D|--4-4--4-4--4-4--4-4--4-4---|
A|------1----2---------2------|
E|-4--------------2---------0-|





B   B/Bb  G#
At sundown on the freeway
B/F#    B         E
Is no place for goodbyes

E (Continue strumming the E chord throughout the Pre chorus)
Don't worry now

Seasons will change

Forgive my mouth

For not letting you walk away


G#            B           E
Take your love, bring it back

Bring it back
D#m     B         E
Think before you leave
G#     B 
I forgot what love is
E
Bring it back
D#m           B     E
Tell me that you believe




C#m 
I've got a different
       D#m
ending to our story
E
I know it's hard for you

to hear it through
F#
But listen as I read



G#            B           E
Take your love, bring it back

Bring it back
D#m     B         E
Think before you leave
G#     B 
I forgot what love is
E
Bring it back
D#m           B     E
Tell me that you believe
G#            B           E
Take your love, bring it back

Bring it back
D#m     B         E
Think before you leave
G#     B 
I forgot what love is
E
Bring it back
D#            B     E
Tell me that you believe
F#
What fate has been telling me



Tap to rate this tab
# A B C D E F G H I J K L M N O P Q R S T U V W X Y Z