Song name
# A B C D E F G H I J K L M N O P Q R S T U V W X Y Z

Kris Allen - Live Like Were Dying tab

Kris Allen - Live Like We're Dying
Tabbed by:  Jeff Martin
Tuning:  Standard

Guitar 1:  Capo 3, Electric  (Tab relative to capo position)
Guitar 2:  Standard, Acoustic

Intro
Guitar 1 (Electric) ["00"s are to keep the tab lined up]
|------------------------------------------:||
|------------------------------------------:||
|------------------------------------------:||
|-11/12-12-12-12-12-11---6-7-7-7-7---2-(2)-:||
|-00----00-00-00-00-00-0-0-0-0-0-0-0-0-(0)-:||
|------------------------------------------:|| x4

Verse 1
Guitar 2 (transposed for acoustic guitar)

 Am-C-F-C
|-0-0-X-0-:||
|-1-1-1-1-:||
|-2-0-2-0-:||
|-2-2-3-2-:||
|-0-3-3-3-:||
|-0-0-1-0-:|| x8

Guitar 1 (just because)
|---------:||
|---------:||
|-2-6-7-6-:||
|-4-7-7-7-:||
|-4-7-5-7-:||
|-2-5-X-5-:|| x8

Chorus 1:

Guitar 2:
  F         G       C                   F
|-1111111---3333----0--0--0--0--0--0----1111---:||
|-1111111---3333----1--1--1--1--1--1----1111---:||
|-2222222---4444----0--0--0--0--0--0----2222---:||
|-3333333---5555----2--2--2--2--2--2----3333---:||
|-3333333---5555----3--3--3--3--3--3----3333---:||
|-1111111-0-3333-0-(3)(3)(3)(3)(3)(3)-0-1111-0-:|| x4

Guitar 1:
|------------------------------------------:||
|------------------------------------------:||
|------------------------------------------:||
|-11/12-12-12-12-12-11---6-7-7-7-7---2-(2)-:||
|-00----00-00-00-00-00-0-0-0-0-0-0-0-0-(0)-:||
|------------------------------------------:|| x7

(Interlude)
Guitar 1:
|------------------------------------------:||
|------------------------------------------:||
|------------------------------------------:||
|-11/12-12-12-12-12-11---6-7-7-7-7---2-(2)-:||
|-00----00-00-00-00-00-0-0-0-0-0-0-0-0-(0)-:||
|------------------------------------------:|| x2

Verse 2: 

(Pause for piano only)

Guitar 2 (transposed for acoustic guitar)

 Am-C-F-C
|-0-0-X-0-:||
|-1-1-1-1-:||
|-2-0-2-0-:||
|-2-2-3-2-:||
|-0-3-3-3-:||
|-0-0-1-0-:|| x3

Chorus 2:

Guitar 2:
  F       G     C                 F
|-1111111---3333----0--0--0--0--0--0----1111---:||
|-1111111---3333----1--1--1--1--1--1----1111---:||
|-2222222---4444----0--0--0--0--0--0----2222---:||
|-3333333---5555----2--2--2--2--2--2----3333---:||
|-3333333---5555----3--3--3--3--3--3----3333---:||
|-1111111-0-3333-0-(3)(3)(3)(3)(3)(3)-0-1111-0-:|| x8

Guitar 1: (slight variations played, but based on this riff)
|----12-------12---:||
|--10--12---10--10-:||
|-9--------9-------:||
|------------------:||
|------------------:||
|------------------:|| x8 (remember, position is relative to capo)

Bridge:

Guitar 2:

|-5-5-5-5-5-7-08-08-:||
|-6-6-6-6-6-8-08-08-:||
|-5-5-5-5-5-7-09-09-:||
|-7-7-7-7-7-7-10-10-:||
|-X-X-X-X-X-X-XX-XX-:||
|-X-X-X-X-X-X-XX-XX-:|| x8

Chorus 3 = Chorus 2

Please Correct, TIA
Tap to rate this tab
# A B C D E F G H I J K L M N O P Q R S T U V W X Y Z