Song name
# A B C D E F G H I J K L M N O P Q R S T U V W X Y Z

Kris Allen - Live Like Were Dying tab

 (Intro)
**(Capo on 3!)**

 E|-----------------------------|
 A|-----------------------------|
 D|-----------------------------|
 G|--6/7-7-7--1-1-1--2-2-2------|
 B|-------------------------2---|
 e|-----------------------------|  x2


Verse 1: Am, C, F, C x8
Chorus: F, G, C, F x4
(repeat intro) 
E|------------------------------|
A|------------------------------|
D|------------------------------|
G|--6/7-7-7--1-1-1--2-2-2-------|
B|-------------------------2----|
e|------------------------------|  x4

Verse 2: (Pause for Piano) Am, C, F, C x3  
Chorus 2: F, G, C, F  x8

(repeat intro)

E|------------------------------|
A|------------------------------|
D|------------------------------|
G|--6/7-7-7--1-1-1--2-2-2-------|
B|-------------------------2----|
e|------------------------------|  x9

(Repeat Chorus and fade till end)
 F, G, C, F  


You're Welcome!
-Megan:)
Tap to rate this tab
 
# A B C D E F G H I J K L M N O P Q R S T U V W X Y Z