Song name
# A B C D E F G H I J K L M N O P Q R S T U V W X Y Z

Kris Allen - Live Like Were Dying Acoustic tab

I made this tab based on Kris's solo acoustic performance on a TV talk show.
This is how Kris played it and i'm pretty sure it is 100% correct.
If you are having a hard time figuring out the post-chorus fill then you can
check out the video that I used to tab it:
http://www.youtube.com/watch?v=v1uku6OU5Ks
Please rate/ comment! Thanks, enjoy!

Verse 1:
"Sometimes we fall down, can't get back up..."
E|--0--0--0--0--                                -0---|
B|--1--1--1--1--     After "It's not too late"  -1---|
G|--2--0--2--0--     (the 4th time)             -0---|
D|--2--2--3--2-- x8  Kris does a pull up on     -2---|
A|--0--3--3--3--     the C chord like --->      -3p0-|
E|--0--x--x--x--                                -x---|

Chorus:
"Yeah, we gotta start looking at the hands of the time we've been..."
E|--1--3--0--1--|
B|--1--3--1--1--|
G|--2--4--0--2--|
D|--3--5--2--3--|  x4
A|--3--5--3--3--|
E|--1--3--x--1--|

Post-chorus/ Pre-verse:
E|----0----0----0----0----0----0----|
B|----1----1----1----1----1----1----|
G|----0----0----0----0----0----0----|
D|----0h2--2----2p0--0----0h2--2----|  x1
A|----3----3----3----3----3----3----|
E|----x----x----x----x----x----x----|

Verse 2:
"And if your plane fell out of the skies..."
E|--0--0--0--0--|       The first line Kris only plays
B|--1--1--1--1--|       the 002210 then slaps the strings
G|--2--0--2--0--|       3 times on the beat instead of playing
D|--2--2--3--2--|  x4   the other 3 chords.
A|--0--3--3--3--|
E|--0--x--x--x--|

Chorus:
"Yeah, we gotta start looking at the hands of the time we've been..."
E|--1--3--0--1--|
B|--1--3--1--1--|
G|--2--4--0--2--|
D|--3--5--2--3--|  x8
A|--3--5--3--3--|
E|--1--3--x--1--|

Post-chorus:
E|----0----0----0----0----0----0----0----0----      But end   -0-|
B|----1----1----1----1----1----1----1----1----      with this -1-|
G|----0----0----0----0----0----0----0----0----      the 2nd   -0-|
D|----0h2--2----2p0--0h2p00h2--2----2p0--0h2--  x2  time -->  -2-|
A|----3----3----3----3----3----3----3----3----                -3-|
E|----x----x----x----x----x----x----x----x----                -x-|

Breakdown/ Bridge:
"You never know a good thing till it's gone..."
E|--1--0--|
B|--1--1--|
G|--2--0--|
D|--3--2--|  x4
A|--3--3--|
E|--1--x--|

Chorus:
"Looking at the hands of the time we've been given..."
E|--1--3--0--1--|
B|--1--3--1--1--|
G|--2--4--0--2--|
D|--3--5--2--3--|  x10
A|--3--5--3--3--|
E|--1--3--x--1--|


Please rate/ comment!
Tap to rate this tab
# A B C D E F G H I J K L M N O P Q R S T U V W X Y Z