Song name
# A B C D E F G H I J K L M N O P Q R S T U V W X Y Z

Kris Allen - To Make You Feel My Love chords

Highlighted       Show chord diagrams
To Make You Feel My Love
Words and Music by Bob Dylan

Performed by Kris Allen Live On American Idol

Chords:
It will be easier to play open chords
  E  (or open chord E)    (Open Chord B)        D    (Open Chord A)          Am
---0--------------0--------------0--------------2--------------0--------------0-|
---0--------------0--------------0--------------3--------------0--------------1-|
---1--------------9--------------4--------------2--------------2--------------2-|
---2--------------9--------------4--------------0--------------2--------------2-|
---2--------------7--------------2--------------x--------------0--------------0-|
---0--------------0--------------x--------------x--------------x--------------x-|

(Open Chord F#)           G#
------------0--------------4----------------------------------------------------|
------------0--------------4----------------------------------------------------|
------------2--------------5----------------------------------------------------|
------------4--------------6----------------------------------------------------|
------------4--------------6----------------------------------------------------|
------------x--------------4----------------------------------------------------|

Capo on Second Fret


INTRO:
E     B    D   A   Am   E

E                        B
When the rain is blowing in your face
D                      A
And the whole world is on your case
Am                 E
I would offer you a warm embrace
F#       B         E
To make you feel my love.

VERSE 2:
E                              B
When evening shadows and the stars appear
D                            A
And there is no one there to dry your tears
Am                      E
I could hold you for a million years
F#        B         E
To make you feel my love.

BRIDGE 1:
A                            E
I know you haven't made your mind up yet
G#           A             E
But I would never do you wrong.
A                               E
I've known it from the moment that we met
F#7                          B
No doubt in my mind where you belong

VERSE 3:
E                   B
I'd go hungry, I'd go black and blue
D                         A
I'd go crawling down the avenue.
Am                E
There's nothing that I wouldn't do
F#       B           E
To make you feel my love.

INSTRUMENTAL:
E     B    D   A   Am   E
F#       B           E
To make you feel my love.

A                                 E
The storms are raging on the rollin' sea.
G#        A             E
Down on the highway of regret
A                                E
The winds of change are blowing wild and free.
F#                            B
You ain't seen nothing like me yet.

VERSE 4:
E                               B
I could make you happy, make your dreams come true.
D                           A
Theres nothing that I wouldn't do.
Am                     E
Go to the ends of the earth for you
F#          B         E
To make you feel my love
F#          B      (Pause)  E
To make you feel my....         Love


tabbed by Lil' Joe (:
Tap to rate this tab
 
# A B C D E F G H I J K L M N O P Q R S T U V W X Y Z