Song name
# A B C D E F G H I J K L M N O P Q R S T U V W X Y Z

Kris Dayanti - Menghitung Hari tab

This is an easy tab version of Menghitung Hari by me.. :)
Try it.. It is so easy...

By : BudaKomp@S
--3-2------------------------------------|
------3-0-1/5-3-----1-1-0~---------------|
----------------2-4----------------------|           
-----------------------------------------|
-----------------------------------------|
-----------------------------------------| 

--------3-2-3/5-5------------------------|
-----------------------------------------|
--2-4-5-----------5-4~-------------------|           
-----------------------------------------|
-----------------------------------------|
-----------------------------------------| 


--------3-2---------2-0---------7-5~-----|
-----------------------------------------|
--2-4-5-------0-3-4-------2-4-5----------|           
-----------------------------------------|
-----------------------------------------|
-----------------------------------------| 

Enjoy!! :) boleh ar ayat awek gne tab ni.. hehe..
Tap to rate this tab
 
# A B C D E F G H I J K L M N O P Q R S T U V W X Y Z