Song name
# A B C D E F G H I J K L M N O P Q R S T U V W X Y Z

Kris Norris - Everything Expires tab

 Alright, I've been working much with this song, so the tabs should be 99%
 accurate. Message me if there's something incorrect! Thanks :)


 Legend:
 
 Gtr.1 = Rhythm Guitar
 Gtr.2 = Lead Guitar
 Gtr.3 = 2nd Rhythm Guitar

 h = Hammer on
 p = Pull off
 / = Slide up fretboard   (Towards headstock)
 \ = Slide down fretboard (Towards pick-ups )
 . = Palm Mute
 x = Dead note / Muted note

 Tuning: Drop C
 
 To the very limit of my ablilities.


 < Intro >

 Gtr.1

D|----------------------------------------------------|
A|----------------------------------------------------|
F|-------7---------7\1010/9-9/7-------7---------------|
C|-0-----x---------x---x----x---0-----x-------3---2-2-|
G|-0-----5---------5\8-8-/7-7/5-0-----5-------1---0-0-|
C|-0-000---000-000--------------0-000---000-0---0-----|
     ...   ... ...                ...   ... .   .

 Gtr.2

D|-----------------------------------------------------------|
A|-----------------------------------------------------------|
F|-------10---------10\14-14/12-12/10-------10-------7---6-6-|
C|-0-----x----------x-----x-----x-----0-----x--------x---x-x-|
G|-0-----8----------8-\12-12/10-10/8--0-----8--------5---4-4-|
C|-0-000----000-000-------------------0-000----000-0---0-----|
     ...    ... ...                     ...    ... .   .

 Gtr.1

D|----------------------------------------------------|
A|----------------------------------------------------|
F|-------7---------7\1010/9-9/7-------7---------------|
C|-0-----x---------x---x----x---0-----x-------3---2-2-|
G|-0-----5---------5\8-8-/7-7/5-0-----5-------1---0-0-|
C|-0-000---000-000--------------0-000---000-0---0-----|
     ...   ... ...                ...   ... .   .

 Gtr.2

D|-----------------------------------------------------------|
A|-----------------------------------------------------------|
F|-------10---------10\14-14/12-12/10-------10-------7---9-6-|
C|-0-----x----------x-----x-----x-----0-----x--------x---x-x-|
G|-0-----8----------8-\12-12/10-10/8--0-----8--------5---7-4-|
C|-0-000----000-000-------------------0-000----000-0---0-----|
     ...    ... ...                     ...    ... .   .

 Gtr.1

D|----------------------------------------------------|
A|----------------------------------------------------|
F|-------7---------7\1010/9-9/7-------7---------------|
C|-0-----x---------x---x----x---0-----x-------3---2-2-|
G|-0-----5---------5\8-8-/7-7/5-0-----5-------1---0-0-|
C|-0-000---000-000--------------0-000---000-0---0-----|
     ...   ... ...                ...   ... .   .

 Gtr.2

D|-----------------------------------------------------------|
A|-----------------------------------------------------------|
F|-------10---------10\14-14/12-12/10-------10-------7---6-6-|
C|-0-----x----------x-----x-----x-----0-----x--------x---x-x-|
G|-0-----8----------8-\12-12/10-10/8--0-----8--------5---4-4-|
C|-0-000----000-000-------------------0-000----000-0---0-----|
     ...    ... ...                     ...    ... .   .

 Gtr.1

D|----------------------------------------------------|
A|----------------------------------------------------|
F|-------7---------7\1010/9-9/7-------7---------------|
C|-0-----x---------x---x----x---0-----x-------3---2-2-|
G|-0-----5---------5\8-8-/7-7/5-0-----5-------1---0-0-|
C|-0-000---000-000--------------0-000---000-0---0-----|
     ...   ... ...                ...   ... .   .

 Gtr.2

D|-----------------------------------------------------------|
A|-----------------------------------------------------------|
F|-------10---------10\14-14/12-12/10-------10-------7---9-6-|
C|-0-----x----------x-----x-----x-----0-----x--------x---x-x-|
G|-0-----8----------8-\12-12/10-10/8--0-----8--------5---7-4-|
C|-0-000----000-000-------------------0-000----000-0---0-----|
     ...    ... ...                     ...    ... .   .


 < Verse 1 >

 Gtr.1

D|----------------------------------|
A|----------------------------------|
F|----------------------------------|
C|----------------------------------|
G|-----5---4-----8---7---8-7-8-12~~-|
C|-0-0---0---0-0---0---0------------|
   . .   .   . .   .   . . . .

 Gtr.2

D|---------------------------------------|
A|---------------------------------------|
F|---------------------------------------|
C|----------------------------------11~~-|
G|-----8---7-----12---10---12-10-12------|
C|-0-0---0---0-0----0----0---------------|
   . .   .   . .    .    . .  .  .

 Gtr.1

D|---------------------------------|
A|---------------------------------|
F|---------------------------------|
C|---------------------------------|
G|-----5---4-----8---7-----1-1-0-0-|
C|-0-0---0---0-0---0---0-0---------|
   . .   .   . .   .   . .

 Gtr.2

D|-----------------------------------|
A|-----------------------------------|
F|-----------------------------------|
C|-----------------------------------|
G|-----8---7-----12---10-----5-5-4-4-|
C|-0-0---0---0-0----0----0-0---------|
   . .   .   . .    .    . .

 Gtr.1

D|----------------------------------|
A|----------------------------------|
F|----------------------------------|
C|----------------------------------|
G|-----5---4-----8---7---8-7-8-12~~-|
C|-0-0---0---0-0---0---0------------|
   . .   .   . .   .   . . . .

 Gtr.2

D|---------------------------------------|
A|---------------------------------------|
F|---------------------------------------|
C|----------------------------------11~~-|
G|-----8---7-----12---10---12-10-12------|
C|-0-0---0---0-0----0----0---------------|
   . .   .   . .    .    . .  .  .

 Gtr.1

D|---------------------------------|
A|---------------------------------|
F|---------------------------------|
C|---------------------------------|
G|-----5---4-----8---7-----1-1-0-0-|
C|-0-0---0---0-0---0---0-0---------|
   . .   .   . .   .   . .

 Gtr.2

D|-----------------------------------|
A|-----------------------------------|
F|-----------------------------------|
C|-----------------------------------|
G|-----8---7-----12---10-----5-5-4-4-|
C|-0-0---0---0-0----0----0-0---------|
   . .   .   . .    .    . .

 Gtr.1

D|----------------------------------|
A|----------------------------------|
F|----------------------------------|
C|----------------------------------|
G|-----5---4-----8---7---8-7-8-12~~-|
C|-0-0---0---0-0---0---0------------|
   . .   .   . .   .   . . . .

 Gtr.2

D|---------------------------------------|
A|---------------------------------------|
F|---------------------------------------|
C|----------------------------------11~~-|
G|-----8---7-----12---10---12-10-12------|
C|-0-0---0---0-0----0----0---------------|
   . .   .   . .    .    . .  .  .

 Gtr.1

D|---------------------------------|
A|---------------------------------|
F|---------------------------------|
C|---------------------------------|
G|-----5---4-----8---7-----1-1-0-0-|
C|-0-0---0---0-0---0---0-0---------|
   . .   .   . .   .   . .

 Gtr.2

D|-----------------------------------|
A|-----------------------------------|
F|-----------------------------------|
C|-----------------------------------|
G|-----8---7-----12---10-----5-5-4-4-|
C|-0-0---0---0-0----0----0-0---------|
   . .   .   . .    .    . .

 Gtr.1

D|----------------------------------|
A|----------------------------------|
F|----------------------------------|
C|----------------------------------|
G|-----5---4-----8---7---8-7-8-12~~-|
C|-0-0---0---0-0---0---0------------|
   . .   .   . .   .   . . . .

 Gtr.2

D|---------------------------------------|
A|---------------------------------------|
F|---------------------------------------|
C|----------------------------------11~~-|
G|-----8---7-----12---10---12-10-12------|
C|-0-0---0---0-0----0----0---------------|
   . .   .   . .    .    . .  .  .

 Gtr.1

D|--------------------------|
A|--------------------------|
F|--------------------------|
C|-----------------8-7-8-11-|
G|-----5---4-------8-7-8-11-|
C|-0-0---0---0-0-0-8-7-8-11-|
   . .   .   . . .

 Gtr.2

D|--------------------------|
A|--------------------------|
F|-----------------7-6-7-10-|
C|-----------------x-x-x-x--|
G|-----8---7-------5-4-5-8--|
C|-0-0---0---0-0-0----------|
   . .   .   . . .


 < Chorus 1 >

 Gtr.1

D|----------------------------------------------------|
A|----------------------------------------------------|
F|-------7---------7\1010/9-9/7-------7---------------|
C|-0-----x---------x---x----x---0-----x-------3---2-2-|
G|-0-----5---------5\8-8-/7-7/5-0-----5-------1---0-0-|
C|-0-000---000-000--------------0-000---000-0---0-----|
     ...   ... ...                ...   ... .   .

 Gtr.2

D|-----------------------------------------------------------|
A|-----------------------------------------------------------|
F|-------10---------10\14-14/12-12/10-------10-------7---6-6-|
C|-0-----x----------x-----x-----x-----0-----x--------x---x-x-|
G|-0-----8----------8-\12-12/10-10/8--0-----8--------5---4-4-|
C|-0-000----000-000-------------------0-000----000-0---0-----|
     ...    ... ...                     ...    ... .   .

 Gtr.1

D|----------------------------------------------------|
A|----------------------------------------------------|
F|-------7---------7\1010/9-9/7-------7---------------|
C|-0-----x---------x---x----x---0-----x-------3---2-2-|
G|-0-----5---------5\8-8-/7-7/5-0-----5-------1---0-0-|
C|-0-000---000-000--------------0-000---000-0---0-----|
     ...   ... ...                ...   ... .   .

 Gtr.2

D|-----------------------------------------------------------|
A|-----------------------------------------------------------|
F|-------10---------10\14-14/12-12/10-------10-------7---9-6-|
C|-0-----x----------x-----x-----x-----0-----x--------x---x-x-|
G|-0-----8----------8-\12-12/10-10/8--0-----8--------5---7-4-|
C|-0-000----000-000-------------------0-000----000-0---0-----|
     ...    ... ...                     ...    ... .   .

 Gtr.1

D|----------------------------------------------------|
A|----------------------------------------------------|
F|-------7---------7\1010/9-9/7-------7---------------|
C|-0-----x---------x---x----x---0-----x-------3---2-2-|
G|-0-----5---------5\8-8-/7-7/5-0-----5-------1---0-0-|
C|-0-000---000-000--------------0-000---000-0---0-----|
     ...   ... ...                ...   ... .   .

 Gtr.2

D|-----------------------------------------------------------|
A|-----------------------------------------------------------|
F|-------10---------10\14-14/12-12/10-------10-------7---6-6-|
C|-0-----x----------x-----x-----x-----0-----x--------x---x-x-|
G|-0-----8----------8-\12-12/10-10/8--0-----8--------5---4-4-|
C|-0-000----000-000-------------------0-000----000-0---0-----|
     ...    ... ...                     ...    ... .   .

 Gtr.1

D|----------------------------------------------------|
A|----------------------------------------------------|
F|-------7---------7\1010/9-9/7-------7---------------|
C|-0-----x---------x---x----x---0-----x-------3---2-2-|
G|-0-----5---------5\8-8-/7-7/5-0-----5-------1---0-0-|
C|-0-000---000-000--------------0-000---000-0---0-----|
     ...   ... ...                ...   ... .   .

 Gtr.2

D|-----------------------------------------------------------|
A|-----------------------------------------------------------|
F|-------10---------10\14-14/12-12/10-------10-------7---9-6-|
C|-0-----x----------x-----x-----x-----0-----x--------x---x-x-|
G|-0-----8----------8-\12-12/10-10/8--0-----8--------5---7-4-|
C|-0-000----000-000-------------------0-000----000-0---0-----|
     ...    ... ...                     ...    ... .   .


 < Verse 2 >

 Gtr.1

D|----------------------------------|
A|----------------------------------|
F|----------------------------------|
C|----------------------------------|
G|-----5---4-----8---7---8-7-8-12~~-|
C|-0-0---0---0-0---0---0------------|
   . .   .   . .   .   . . . .

 Gtr.2

D|---------------------------------------|
A|---------------------------------------|
F|---------------------------------------|
C|----------------------------------11~~-|
G|-----8---7-----12---10---12-10-12------|
C|-0-0---0---0-0----0----0---------------|
   . .   .   . .    .    . .  .  .

 Gtr.1

D|---------------------------------|
A|---------------------------------|
F|---------------------------------|
C|---------------------------------|
G|-----5---4-----8---7-----1-1-0-0-|
C|-0-0---0---0-0---0---0-0---------|
   . .   .   . .   .   . .

 Gtr.2

D|-----------------------------------|
A|-----------------------------------|
F|-----------------------------------|
C|-----------------------------------|
G|-----8---7-----12---10-----5-5-4-4-|
C|-0-0---0---0-0----0----0-0---------|
   . .   .   . .    .    . .

 Gtr.1

D|----------------------------------|
A|----------------------------------|
F|----------------------------------|
C|----------------------------------|
G|-----5---4-----8---7---8-7-8-12~~-|
C|-0-0---0---0-0---0---0------------|
   . .   .   . .   .   . . . .

 Gtr.2

D|---------------------------------------|
A|---------------------------------------|
F|---------------------------------------|
C|----------------------------------11~~-|
G|-----8---7-----12---10---12-10-12------|
C|-0-0---0---0-0----0----0---------------|
   . .   .   . .    .    . .  .  .

 Gtr.1

D|---------------------------------|
A|---------------------------------|
F|---------------------------------|
C|---------------------------------|
G|-----5---4-----8---7-----1-1-0-0-|
C|-0-0---0---0-0---0---0-0---------|
   . .   .   . .   .   . .

 Gtr.2

D|-----------------------------------|
A|-----------------------------------|
F|-----------------------------------|
C|-----------------------------------|
G|-----8---7-----12---10-----5-5-4-4-|
C|-0-0---0---0-0----0----0-0---------|
   . .   .   . .    .    . .

 Gtr.1

D|----------------------------------|
A|----------------------------------|
F|----------------------------------|
C|----------------------------------|
G|-----5---4-----8---7---8-7-8-12~~-|
C|-0-0---0---0-0---0---0------------|
   . .   .   . .   .   . . . .

 Gtr.2

D|---------------------------------------|
A|---------------------------------------|
F|---------------------------------------|
C|----------------------------------11~~-|
G|-----8---7-----12---10---12-10-12------|
C|-0-0---0---0-0----0----0---------------|
   . .   .   . .    .    . .  .  .

 Gtr.1

D|---------------------------------|
A|---------------------------------|
F|---------------------------------|
C|---------------------------------|
G|-----5---4-----8---7-----1-1-0-0-|
C|-0-0---0---0-0---0---0-0---------|
   . .   .   . .   .   . .

 Gtr.2

D|-----------------------------------|
A|-----------------------------------|
F|-----------------------------------|
C|-----------------------------------|
G|-----8---7-----12---10-----5-5-4-4-|
C|-0-0---0---0-0----0----0-0---------|
   . .   .   . .    .    . .

 Gtr.1

D|----------------------------------|
A|----------------------------------|
F|----------------------------------|
C|----------------------------------|
G|-----5---4-----8---7---8-7-8-12~~-|
C|-0-0---0---0-0---0---0------------|
   . .   .   . .   .   . . . .

 Gtr.2

D|---------------------------------------|
A|---------------------------------------|
F|---------------------------------------|
C|----------------------------------11~~-|
G|-----8---7-----12---10---12-10-12------|
C|-0-0---0---0-0----0----0---------------|
   . .   .   . .    .    . .  .  .

 Gtr.1

D|-----------------------------|
A|-----------------------------|
F|-----------------------------|
C|-------------------------7-3-|
G|-----5---4---------------5-1-|
C|-0-0---0---0-0-0-7-8-7-8-----|
   . .   .   . . . . . . .

 Gtr.2

D|-----------------------------|
A|-----------------------------|
F|-----------------------------|
C|-------------------------6-1-|
G|-----8---7---------------4-1-|
C|-0-0---0---0-0-0-7-8-7-8---1-|
   . .   .   . . . . . . .


 < Bridge >

 Gtr.1

D|-------------------------------------------------|
A|-------------------------------------------------|
F|-------------------------------------------------|
C|-0-0-0---0-0-0-0-0---0-0-8-8-8---8-8-8-8-8---8-8-|
G|-0-0-0---0-0-0-0-0---0-0-8-8-8---8-8-8-8-8---8-8-|
C|-0-0-0---0-0-0-0-0---0-0-8-8-8---8-8-8-8-8---8-8-|


 Gtr.2

D|-------------------------------------------------|
A|-------------------------------------------------|
F|-7-7-7---7-7-7-7-7---7-7-6-6-6---6-6-6-6-6---6-6-|
C|-x-x-x---x-x-x-x-x---x-x-x-x-x---x-x-x-x-x---x-x-|
G|-5-5-5---5-5-5-5-5---5-5-4-4-4---4-4-4-4-4---4-4-|
C|-------------------------------------------------|


 Gtr.1

D|-------------------------------------------------------------|
A|-------------------------------------------------------------|
F|-------------------------------------------------------------|
C|-5-5-5---5-5-5-5-5---5-5-7-7-7---7-7-7-7-7---7-7---------7-3-|
G|-5-5-5---5-5-5-5-5---5-5-7-7-7---7-7-7-7-7---7-7---------5-1-|
C|-5-5-5---5-5-5-5-5---5-5-7-7-7---7-7-7-7-7---7-7-7-8-7-8-----|
                                                   . . . . 

 Gtr.2

D|---------------------------------------------------|
A|---------------------------------------------------|
F|-101010---1010101010---10109-9-9---9-9-------------|
C|-x-x-x----x-x-x-x-x----x-x-x-x-x---x-x---------6-1-|
G|-8-8-8----8-8-8-8-8----8-8-7-7-7---7-7---------4-1-|
C|---------------------------------------7-8-7-8---1-|
                                         . . . .

 Gtr.1

D|-------------------------------------------------|
A|-------------------------------------------------|
F|-------------------------------------------------|
C|-0-0-0---0-0-0-0-0---0-0-8-8-8---8-8-8-8-8---8-8-|
G|-0-0-0---0-0-0-0-0---0-0-8-8-8---8-8-8-8-8---8-8-|
C|-0-0-0---0-0-0-0-0---0-0-8-8-8---8-8-8-8-8---8-8-|


 Gtr.2

D|-------------------------------------------------|
A|-------------------------------------------------|
F|-7-7-7---7-7-7-7-7---7-7-6-6-6---6-6-6-6-6---6-6-|
C|-x-x-x---x-x-x-x-x---x-x-x-x-x---x-x-x-x-x---x-x-|
G|-5-5-5---5-5-5-5-5---5-5-4-4-4---4-4-4-4-4---4-4-|
C|-------------------------------------------------|


 Gtr.1

D|-------------------------------------------------------------|
A|-------------------------------------------------------------|
F|-------------------------------------------------------------|
C|-5-5-5---5-5-5-5-5---5-5-7-7-7---7-7-7-7-7---7-7---------7-3-|
G|-5-5-5---5-5-5-5-5---5-5-7-7-7---7-7-7-7-7---7-7---------5-1-|
C|-5-5-5---5-5-5-5-5---5-5-7-7-7---7-7-7-7-7---7-7-7-8-7-8-----|
                                                   . . . . 

 Gtr.2

D|---------------------------------------------------|
A|---------------------------------------------------|
F|-101010---1010101010---10109-9-9---9-9-------------|
C|-x-x-x----x-x-x-x-x----x-x-x-x-x---x-x---------6-1-|
G|-8-8-8----8-8-8-8-8----8-8-7-7-7---7-7---------4-1-|
C|---------------------------------------7-8-7-8---1-|
                                         . . . .


 < Lead Section before Solo >

 Gtr.1 

D|---------------------------------|
A|------This is 16 strums----------|
F|---------------------------------|
C|-0-0-0-0-0-0-0-0-0-0-0-0-0-0-0-0-|
G|-0-0-0-0-0-0-0-0-0-0-0-0-0-0-0-0-|
C|-0-0-0-0-0-0-0-0-0-0-0-0-0-0-0-0-|

 
 Gtr.2

D|---------------------------------|
A|---------5---6---8-----6-----5---|
F|-----7-------------------------7-|
C|---7---7---7---7---7-7---7-7-----|
G|-5-------------------------------|
C|---------------------------------|
   . .   .   .   .   . .   . .

 Gtr.3

D|------This is 16 strums-----------|
A|----------------------------------|
F|-10101010101010101010101010101010-|
C|-x-x-x-x-x-x-x-x-x-x-x-x-x-x-x-x--|
G|-8-8-8-8-8-8-8-8-8-8-8-8-8-8-8-8--|
C|----------------------------------|


 Gtr.1

D|---------------------------------|
A|------This is 16 strums----------|
F|---------------------------------|
C|-8-8-8-8-8-8-8-8-8-8-8-8-8-8-8-8-|
G|-8-8-8-8-8-8-8-8-8-8-8-8-8-8-8-8-|
C|-8-8-8-8-8-8-8-8-8-8-8-8-8-8-8-8-|


 Gtr.2

D|---------------------------------|
A|---------1---3---5-----3-----1---|
F|-----3-------------------------3-|
C|---3---3---3---3---3-3---3-3-----|
G|-1-------------------------------|
C|---------------------------------|
   . .   .   .   .   . .   . .

 Gtr.3

D|------This is 16 strums----------|
A|---------------------------------|
F|-7-7-7-7-7-7-7-7-7-7-7-7-7-7-7-7-|
C|-x-x-x-x-x-x-x-x-x-x-x-x-x-x-x-x-|
G|-5-5-5-5-5-5-5-5-5-5-5-5-5-5-5-5-|
C|---------------------------------|


 Gtr.1

D|---------------------------------|
A|------This is 16 strums----------|
F|---------------------------------|
C|-5-5-5-5-5-5-5-5-5-5-5-5-5-5-5-5-|
G|-5-5-5-5-5-5-5-5-5-5-5-5-5-5-5-5-|
C|-5-5-5-5-5-5-5-5-5-5-5-5-5-5-5-5-|


 Gtr.2

D|-------------------------------------------------|
A|-------------10----11----13-------11-------10----|
F|-------12-------------------------------------12-|
C|----12----12----12----12----12-12----12-12-------|
G|-10----------------------------------------------|
C|-------------------------------------------------|
   .  .     .     .     .     .  .     .  .

 Gtr.3

D|------This is 16 strums--------------------------|
A|-------------------------------------------------|
F|-15-15-15-15-15-15-15-15-15-15-15-15-15-15-15-15-|
C|-x--x--x--x--x--x--x--x--x--x--x--x--x--x--x--x--|
G|-13-13-13-13-13-13-13-13-13-13-13-13-13-13-13-13-|
C|-------------------------------------------------|


 Gtr.1

D|---------------------------------|
A|------This is 16 strums----------|
F|---------------------------------|
C|-7-7-7-7-7-7-7-7-7-7-7-7-7-7-7-7-|
G|-7-7-7-7-7-7-7-7-7-7-7-7-7-7-7-7-|
C|-7-7-7-7-7-7-7-7-7-7-7-7-7-7-7-7-|


 Gtr.2

D|-------------------------------------------------|
A|----------15----15----------------14----14-------|
F|-------12----12----12----------12----12----12----|
C|----14----------------14----14----------------14-|
G|-12----------------------12----------------------|
C|-------------------------------------------------|
   .                       .

 Gtr.3

D|-------------------------------------------------|
A|-------------------------------------------------|
F|-14-14-14-14-14-14-14-14-10-10-10-10-12-12-12-12-|
C|-x--x--x--x--x--x--x--x--x--x--x--x--x--x--x--x--|
G|-12-12-12-12-12-12-12-12-8--8--8--8--10-10-10-10-|
C|-------------------------------------------------|



 Gtr.1 

D|---------------------------------|
A|------This is 16 strums----------|
F|---------------------------------|
C|-0-0-0-0-0-0-0-0-0-0-0-0-0-0-0-0-|
G|-0-0-0-0-0-0-0-0-0-0-0-0-0-0-0-0-|
C|-0-0-0-0-0-0-0-0-0-0-0-0-0-0-0-0-|

 
 Gtr.2

D|---------------------------------|
A|---------5---6---8-----6-----5---|
F|-----7-------------------------7-|
C|---7---7---7---7---7-7---7-7-----|
G|-5-------------------------------|
C|---------------------------------|
   . .   .   .   .   . .   . .

 Gtr.3

D|------This is 16 strums-----------|
A|----------------------------------|
F|-10101010101010101010101010101010-|
C|-x-x-x-x-x-x-x-x-x-x-x-x-x-x-x-x--|
G|-8-8-8-8-8-8-8-8-8-8-8-8-8-8-8-8--|
C|----------------------------------|


 Gtr.1

D|---------------------------------|
A|------This is 16 strums----------|
F|---------------------------------|
C|-8-8-8-8-8-8-8-8-8-8-8-8-8-8-8-8-|
G|-8-8-8-8-8-8-8-8-8-8-8-8-8-8-8-8-|
C|-8-8-8-8-8-8-8-8-8-8-8-8-8-8-8-8-|


 Gtr.2

D|---------------------------------|
A|---------1---3---5-----3-----1---|
F|-----3-------------------------3-|
C|---3---3---3---3---3-3---3-3-----|
G|-1-------------------------------|
C|---------------------------------|
   . .   .   .   .   . .   . .

 Gtr.3

D|------This is 16 strums----------|
A|---------------------------------|
F|-7-7-7-7-7-7-7-7-7-7-7-7-7-7-7-7-|
C|-x-x-x-x-x-x-x-x-x-x-x-x-x-x-x-x-|
G|-5-5-5-5-5-5-5-5-5-5-5-5-5-5-5-5-|
C|---------------------------------|


 Gtr.1

D|---------------------------------|
A|------This is 16 strums----------|
F|---------------------------------|
C|-5-5-5-5-5-5-5-5-5-5-5-5-5-5-5-5-|
G|-5-5-5-5-5-5-5-5-5-5-5-5-5-5-5-5-|
C|-5-5-5-5-5-5-5-5-5-5-5-5-5-5-5-5-|


 Gtr.2

D|-------------------------------------------------|
A|-------------10----11----13-------11-------10----|
F|-------12-------------------------------------12-|
C|----12----12----12----12----12-12----12-12-------|
G|-10----------------------------------------------|
C|-------------------------------------------------|
   .  .     .     .     .     .  .     .  .

 Gtr.3

D|------This is 16 strums--------------------------|
A|-------------------------------------------------|
F|-15-15-15-15-15-15-15-15-15-15-15-15-15-15-15-15-|
C|-x--x--x--x--x--x--x--x--x--x--x--x--x--x--x--x--|
G|-13-13-13-13-13-13-13-13-13-13-13-13-13-13-13-13-|
C|-------------------------------------------------|


 Gtr.1

D|---------------------------------|
A|------This is 16 strums----------|
F|---------------------------------|
C|-7-7-7-7-7-7-7-7-7-7-7-7-7-7-7-7-|
G|-7-7-7-7-7-7-7-7-7-7-7-7-7-7-7-7-|
C|-7-7-7-7-7-7-7-7-7-7-7-7-7-7-7-7-|


 Gtr.2

D|-------------------------------------------------|
A|----------15----15----------------14----14-------|
F|-------12----12----12----------12----12----12----|
C|----14----------------14----14----------------14-|
G|-12----------------------12----------------------|
C|-------------------------------------------------|
   .                       .

 Gtr.3

D|---------------------------------------------|
A|---------------------------------------------|
F|-14-14-14-14-14-14-14-14-9-9-9-9-12-12-12-12-|
C|-x--x--x--x--x--x--x--x--x-x-x-x-x--x--x--x--|
G|-12-12-12-12-12-12-12-12-7-7-7-7-10-10-10-10-|
C|---------------------------------------------|



 << SOLO >>

 Gtr.2

D|-17p13-------------------------------------------|
A|-------15----------------------------------------|
F|----------14-12----------------------------10-12-|
C|----------------15-14-12----------10-12-14-------|
G|-------------------------10-12-13----------------|
C|-------------------------------------------------|


 Gtr.1

D|-------------------------------------------------|
A|-------------------------------------------------|
F|-------------------------------------------------|
C|-0~~~~~~~~~~~~~~~~~~~~~~~~~~~~~~~~~~~~~~~~~~~~~~-|
G|-0~~~~~~~~~~~~~~~~~~~~~~~~~~~~~~~~~~~~~~~~~~~~~~-|
C|-0~~~~~~~~~~~~~~~~~~~~~~~~~~~~~~~~~~~~~~~~~~~~~~-|


 Gtr.2

D|-13p10---------------------------------|
A|-------11------------------------------|
F|----------10-9---------------------5-7-|
C|---------------12-10-8-------5-7-8-----|
G|-----------------------5-7-8-----------|
C|---------------------------------------|


 Gtr.1

D|---------------------------------------|
A|---------------------------------------|
F|---------------------------------------|
C|-8~~~~~~~~~~~~~~~~~~~~~~~~~~~~~~~~~~~~-|
G|-8~~~~~~~~~~~~~~~~~~~~~~~~~~~~~~~~~~~~-|
C|-8~~~~~~~~~~~~~~~~~~~~~~~~~~~~~~~~~~~~-|


 Gtr.2

D|-18-17-15-17-15----15----------------------------------------------------|
A|----------------18----18-17-18-17-15-17-15----15-------------------------|
F|-------------------------------------------18----18-16-18-16-15-16-15-13-|
C|-------------------------------------------------------------------------|
G|-------------------------------------------------------------------------|
C|-------------------------------------------------------------------------|


 Gtr.1

D|-------------------------------------------------------------------------|
A|-------------------------------------------------------------------------|
F|-------------------------------------------------------------------------|
C|-5~~~~~~~~~~~~~~~~~~~~~~~~~~~~~~~~~~~~~~~~~~~~~~~~~~~~~~~~~~~~~~~~~~~~~~-|
G|-5~~~~~~~~~~~~~~~~~~~~~~~~~~~~~~~~~~~~~~~~~~~~~~~~~~~~~~~~~~~~~~~~~~~~~~-|
C|-5~~~~~~~~~~~~~~~~~~~~~~~~~~~~~~~~~~~~~~~~~~~~~~~~~~~~~~~~~~~~~~~~~~~~~~-|


 Gtr.2

D|-17p12----------12-17p12----------12-16p12----------12-16p12----------12-|
A|-------12----12----------12----12----------12----12----------12----12----|
F|----------13----------------13----------------13----------------13-------|
C|-------------------------------------------------------------------------|
G|-------------------------------------------------------------------------|
C|-------------------------------------------------------------------------|


 Gtr.1

D|-------------------------------------------------------------------------|
A|-------------------------------------------------------------------------|
F|-------------------------------------------------------------------------|
C|-7~~~~~~~~~~~~~~~~~~~~~~~~~~~~~~~~~~~~~~~~~~~~~~~~~~~~~~~~~~~~~~~~~~~~~~-|
G|-7~~~~~~~~~~~~~~~~~~~~~~~~~~~~~~~~~~~~~~~~~~~~~~~~~~~~~~~~~~~~~~~~~~~~~~-|
C|-7~~~~~~~~~~~~~~~~~~~~~~~~~~~~~~~~~~~~~~~~~~~~~~~~~~~~~~~~~~~~~~~~~~~~~~-|


 Gtr.2

D|-17p13----------13-17p13----------------------------13-17p13----------13-|
A|-------15----15----------15----------------------15----------15----15----|
F|----------14----------------14----------------14----------------14-------|
C|-------------------------------15----------15----------------------------|
G|----------------------------------17-12-17-------------------------------|
C|-------------------------------------------------------------------------|


 Gtr.1

D|-------------------------------------------------------------------------|
A|-------------------------------------------------------------------------|
F|-------------------------------------------------------------------------|
C|-0~~~~~~~~~~~~~~~~~~~~~~~~~~~~~~~~~~~~~~~~~~~~~~~~~~~~~~~~~~~~~~~~~~~~~~-|
G|-0~~~~~~~~~~~~~~~~~~~~~~~~~~~~~~~~~~~~~~~~~~~~~~~~~~~~~~~~~~~~~~~~~~~~~~-|
C|-0~~~~~~~~~~~~~~~~~~~~~~~~~~~~~~~~~~~~~~~~~~~~~~~~~~~~~~~~~~~~~~~~~~~~~~-|


 Gtr.2

D|-18p13----------13-18p13----------------------------13-18p13----------13-|
A|-------15----15----------15----------------------15----------15----15----|
F|----------14----------------14----------------14----------------14-------|
C|-------------------------------15----------15----------------------------|
G|----------------------------------17-13-17-------------------------------|
C|-------------------------------------------------------------------------|


 Gtr.1

D|-------------------------------------------------------------------------|
A|-------------------------------------------------------------------------|
F|-------------------------------------------------------------------------|
C|-8~~~~~~~~~~~~~~~~~~~~~~~~~~~~~~~~~~~~~~~~~~~~~~~~~~~~~~~~~~~~~~~~~~~~~~-|
G|-8~~~~~~~~~~~~~~~~~~~~~~~~~~~~~~~~~~~~~~~~~~~~~~~~~~~~~~~~~~~~~~~~~~~~~~-|
C|-8~~~~~~~~~~~~~~~~~~~~~~~~~~~~~~~~~~~~~~~~~~~~~~~~~~~~~~~~~~~~~~~~~~~~~~-|


 Gtr.2

D|-20p15----------15-20p15----------------------------15-20p15----------15-|
A|-------17----17----------17----------------------17----------17----17----|
F|----------17----------------17----------------17----------------17-------|
C|-------------------------------17----------17----------------------------|
G|----------------------------------19-15-19-------------------------------|
C|-------------------------------------------------------------------------|


 Gtr.1

D|-------------------------------------------------------------------------|
A|-------------------------------------------------------------------------|
F|-------------------------------------------------------------------------|
C|-5~~~~~~~~~~~~~~~~~~~~~~~~~~~~~~~~~~~~~~~~~~~~~~~~~~~~~~~~~~~~~~~~~~~~~~-|
G|-5~~~~~~~~~~~~~~~~~~~~~~~~~~~~~~~~~~~~~~~~~~~~~~~~~~~~~~~~~~~~~~~~~~~~~~-|
C|-5~~~~~~~~~~~~~~~~~~~~~~~~~~~~~~~~~~~~~~~~~~~~~~~~~~~~~~~~~~~~~~~~~~~~~~-|


 Gtr.2

D|----------------------------------------------------------|
A|-15-------15-------15-----14-------14-15-14---------------|
F|----12-------12-------12-----12-------------15-14---------|
C|-------14-------14--------------14----------------12~~///-|
G|----------------------------------------------------------|
C|----------------------------------------------------------|


 Gtr.1

D|----------------------------------------------------------|
A|----------------------------------------------------------|
F|----------------------------------------------------------|
C|-7~~~~~~~~~~~~~~~~~~~~~~~~~~~~~~~~~~~~~~~~~~~~~~~~~~~~~~~-|
G|-7~~~~~~~~~~~~~~~~~~~~~~~~~~~~~~~~~~~~~~~~~~~~~~~~~~~~~~~-|
C|-7~~~~~~~~~~~~~~~~~~~~~~~~~~~~~~~~~~~~~~~~~~~~~~~~~~~~~~~-|


 
 << AFTER SOLO >>

 Gtr.1

D|----------------------------------------------------|
A|----------------------------------------------------|
F|-------7---------7\1010/9-9/7-------7---------------|
C|-0-----x---------x---x----x---0-----x-------3---2-2-|
G|-0-----5---------5\8-8-/7-7/5-0-----5-------1---0-0-|
C|-0-000---000-000--------------0-000---000-0---0-----|
     ...   ... ...                ...   ... .   .

 Gtr.2

D|----------------------------------------------------|
A|----------------------------------------------------|
F|-------7---------7\1010/9-9/7---------------7---7-6-|
C|-------x---------x-x-x----x---0-------------x---x-x-|
G|-------5---------5\8-8-/7-7/5-0-------------5---5-4-|
C|-0----------------------------0---------------------|
              

 Gtr.1

D|----------------------------------------------------|
A|----------------------------------------------------|
F|-------7---------7\1010/9-9/7-------7---------------|
C|-0-----x---------x---x----x---0-----x-------3---2-2-|
G|-0-----5---------5\8-8-/7-7/5-0-----5-------1---0-0-|
C|-0-000---000-000--------------0-000---000-0---0-----|
     ...   ... ...                ...   ... .   .

 Gtr.2

D|----------------------------------------------------|
A|----------------------------------------------------|
F|-------7---------7\1010/9-9/7---------------7---7-6-|
C|-------x---------x-x-x----x---0-------------x---x-x-|
G|-------5---------5\8-8-/7-7/5-0-------------5---5-4-|
C|-0----------------------------0---------------------|
              

 < Chorus 2 >

 Gtr.1

D|----------------------------------------------------|
A|----------------------------------------------------|
F|-------7---------7\1010/9-9/7-------7---------------|
C|-0-----x---------x---x----x---0-----x-------3---2-2-|
G|-0-----5---------5\8-8-/7-7/5-0-----5-------1---0-0-|
C|-0-000---000-000--------------0-000---000-0---0-----|
     ...   ... ...                ...   ... .   .

 Gtr.2

D|-----------------------------------------------------------|
A|-----------------------------------------------------------|
F|-------10---------10\14-14/12-12/10-------10-------7---6-6-|
C|-0-----x----------x-----x-----x-----0-----x--------x---x-x-|
G|-0-----8----------8-\12-12/10-10/8--0-----8--------5---4-4-|
C|-0-000----000-000-------------------0-000----000-0---0-----|
     ...    ... ...                     ...    ... .   .

 Gtr.1

D|----------------------------------------------------|
A|----------------------------------------------------|
F|-------7---------7\1010/9-9/7-------7---------------|
C|-0-----x---------x---x----x---0-----x-------3---2-2-|
G|-0-----5---------5\8-8-/7-7/5-0-----5-------1---0-0-|
C|-0-000---000-000--------------0-000---000-0---0-----|
     ...   ... ...                ...   ... .   .

 Gtr.2

D|-----------------------------------------------------------|
A|-----------------------------------------------------------|
F|-------10---------10\14-14/12-12/10-------10-------7---9-6-|
C|-0-----x----------x-----x-----x-----0-----x--------x---x-x-|
G|-0-----8----------8-\12-12/10-10/8--0-----8--------5---7-4-|
C|-0-000----000-000-------------------0-000----000-0---0-----|
     ...    ... ...                     ...    ... .   .


 < Verse 3 >

 Gtr.1

D|----------------------------------|
A|----------------------------------|
F|----------------------------------|
C|----------------------------------|
G|-----5---4-----8---7---8-7-8-12~~-|
C|-0-0---0---0-0---0---0------------|
   . .   .   . .   .   . . . .

 Gtr.2

D|---------------------------------------|
A|---------------------------------------|
F|---------------------------------------|
C|----------------------------------11~~-|
G|-----8---7-----12---10---12-10-12------|
C|-0-0---0---0-0----0----0---------------|
   . .   .   . .    .    . .  .  .

 Gtr.1

D|---------------------------------|
A|---------------------------------|
F|---------------------------------|
C|---------------------------------|
G|-----5---4-----8---7-----1-1-0-0-|
C|-0-0---0---0-0---0---0-0---------|
   . .   .   . .   .   . .

 Gtr.2

D|-----------------------------------|
A|-----------------------------------|
F|-----------------------------------|
C|-----------------------------------|
G|-----8---7-----12---10-----5-5-4-4-|
C|-0-0---0---0-0----0----0-0---------|
   . .   .   . .    .    . .

 Gtr.1

D|----------------------------------|
A|----------------------------------|
F|----------------------------------|
C|----------------------------------|
G|-----5---4-----8---7---8-7-8-12~~-|
C|-0-0---0---0-0---0---0------------|
   . .   .   . .   .   . . . .

 Gtr.2

D|---------------------------------------|
A|---------------------------------------|
F|---------------------------------------|
C|----------------------------------11~~-|
G|-----8---7-----12---10---12-10-12------|
C|-0-0---0---0-0----0----0---------------|
   . .   .   . .    .    . .  .  .

 Gtr.1

D|---------------------------------|
A|---------------------------------|
F|---------------------------------|
C|---------------------------------|
G|-----5---4-----8---7-----1-1-0-0-|
C|-0-0---0---0-0---0---0-0---------|
   . .   .   . .   .   . .

 Gtr.2

D|-----------------------------------|
A|-----------------------------------|
F|-----------------------------------|
C|-----------------------------------|
G|-----8---7-----12---10-----5-5-4-4-|
C|-0-0---0---0-0----0----0-0---------|
   . .   .   . .    .    . .

 Gtr.1

D|----------------------------------|
A|----------------------------------|
F|----------------------------------|
C|----------------------------------|
G|-----5---4-----8---7---8-7-8-12~~-|
C|-0-0---0---0-0---0---0------------|
   . .   .   . .   .   . . . .

 Gtr.2

D|---------------------------------------|
A|---------------------------------------|
F|---------------------------------------|
C|----------------------------------11~~-|
G|-----8---7-----12---10---12-10-12------|
C|-0-0---0---0-0----0----0---------------|
   . .   .   . .    .    . .  .  .

 Gtr.1

D|---------------------------------|
A|---------------------------------|
F|---------------------------------|
C|---------------------------------|
G|-----5---4-----8---7-----1-1-0-0-|
C|-0-0---0---0-0---0---0-0---------|
   . .   .   . .   .   . .

 Gtr.2

D|-----------------------------------|
A|-----------------------------------|
F|-----------------------------------|
C|-----------------------------------|
G|-----8---7-----12---10-----5-5-4-4-|
C|-0-0---0---0-0----0----0-0---------|
   . .   .   . .    .    . .

 Gtr.1

D|----------------------------------|
A|----------------------------------|
F|----------------------------------|
C|----------------------------------|
G|-----5---4-----8---7---8-7-8-12~~-|
C|-0-0---0---0-0---0---0------------|
   . .   .   . .   .   . . . .

 Gtr.2

D|---------------------------------------|
A|---------------------------------------|
F|---------------------------------------|
C|----------------------------------11~~-|
G|-----8---7-----12---10---12-10-12------|
C|-0-0---0---0-0----0----0---------------|
   . .   .   . .    .    . .  .  .

 Gtr.1

D|-----------------------------|
A|-----------------------------|
F|-----------------------------|
C|-------------------------7-3-|
G|-----5---4---------------5-1-|
C|-0-0---0---0-0-0-7-8-7-8-----|
   . .   .   . . . . . . .

 Gtr.2

D|-----------------------------|
A|-----------------------------|
F|-----------------------------|
C|-------------------------6-1-|
G|-----8---7---------------4-1-|
C|-0-0---0---0-0-0-7-8-7-8---1-|
   . .   .   . . . . . . .

 < Lead Section >


 Gtr.1 

D|---------------------------------|
A|------This is 16 strums----------|
F|---------------------------------|
C|-0-0-0-0-0-0-0-0-0-0-0-0-0-0-0-0-|
G|-0-0-0-0-0-0-0-0-0-0-0-0-0-0-0-0-|
C|-0-0-0-0-0-0-0-0-0-0-0-0-0-0-0-0-|

 
 Gtr.2

D|---------------------------------|
A|---------5---6---8-----6-----5---|
F|-----7-------------------------7-|
C|---7---7---7---7---7-7---7-7-----|
G|-5-------------------------------|
C|---------------------------------|
   . .   .   .   .   . .   . .

 Gtr.3

D|------This is 16 strums-----------|
A|----------------------------------|
F|-10101010101010101010101010101010-|
C|-x-x-x-x-x-x-x-x-x-x-x-x-x-x-x-x--|
G|-8-8-8-8-8-8-8-8-8-8-8-8-8-8-8-8--|
C|----------------------------------|


 Gtr.1

D|---------------------------------|
A|------This is 16 strums----------|
F|---------------------------------|
C|-8-8-8-8-8-8-8-8-8-8-8-8-8-8-8-8-|
G|-8-8-8-8-8-8-8-8-8-8-8-8-8-8-8-8-|
C|-8-8-8-8-8-8-8-8-8-8-8-8-8-8-8-8-|


 Gtr.2

D|---------------------------------|
A|---------1---3---5-----3-----1---|
F|-----3-------------------------3-|
C|---3---3---3---3---3-3---3-3-----|
G|-1-------------------------------|
C|---------------------------------|
   . .   .   .   .   . .   . .

 Gtr.3

D|------This is 16 strums----------|
A|---------------------------------|
F|-7-7-7-7-7-7-7-7-7-7-7-7-7-7-7-7-|
C|-x-x-x-x-x-x-x-x-x-x-x-x-x-x-x-x-|
G|-5-5-5-5-5-5-5-5-5-5-5-5-5-5-5-5-|
C|---------------------------------|


 Gtr.1

D|---------------------------------|
A|------This is 16 strums----------|
F|---------------------------------|
C|-5-5-5-5-5-5-5-5-5-5-5-5-5-5-5-5-|
G|-5-5-5-5-5-5-5-5-5-5-5-5-5-5-5-5-|
C|-5-5-5-5-5-5-5-5-5-5-5-5-5-5-5-5-|


 Gtr.2

D|-------------------------------------------------|
A|-------------10----11----13-------11-------10----|
F|-------12-------------------------------------12-|
C|----12----12----12----12----12-12----12-12-------|
G|-10----------------------------------------------|
C|-------------------------------------------------|
   .  .     .     .     .     .  .     .  .

 Gtr.3

D|------This is 16 strums--------------------------|
A|-------------------------------------------------|
F|-15-15-15-15-15-15-15-15-15-15-15-15-15-15-15-15-|
C|-x--x--x--x--x--x--x--x--x--x--x--x--x--x--x--x--|
G|-13-13-13-13-13-13-13-13-13-13-13-13-13-13-13-13-|
C|-------------------------------------------------|


 Gtr.1

D|---------------------------------|
A|------This is 16 strums----------|
F|---------------------------------|
C|-7-7-7-7-7-7-7-7-7-7-7-7-7-7-7-7-|
G|-7-7-7-7-7-7-7-7-7-7-7-7-7-7-7-7-|
C|-7-7-7-7-7-7-7-7-7-7-7-7-7-7-7-7-|


 Gtr.2

D|-------------------------------------------------|
A|----------15----15----------------14----14-------|
F|-------12----12----12----------12----12----12----|
C|----14----------------14----14----------------14-|
G|-12----------------------12----------------------|
C|-------------------------------------------------|
   .                       .

 Gtr.3

D|-------------------------------------------------|
A|-------------------------------------------------|
F|-14-14-14-14-14-14-14-14-10-10-10-10-12-12-12-12-|
C|-x--x--x--x--x--x--x--x--x--x--x--x--x--x--x--x--|
G|-12-12-12-12-12-12-12-12-8--8--8--8--10-10-10-10-|
C|-------------------------------------------------|



 Gtr.1 

D|---------------------------------|
A|------This is 16 strums----------|
F|---------------------------------|
C|-0-0-0-0-0-0-0-0-0-0-0-0-0-0-0-0-|
G|-0-0-0-0-0-0-0-0-0-0-0-0-0-0-0-0-|
C|-0-0-0-0-0-0-0-0-0-0-0-0-0-0-0-0-|

 
 Gtr.2

D|---------------------------------|
A|---------5---6---8-----6-----5---|
F|-----7-------------------------7-|
C|---7---7---7---7---7-7---7-7-----|
G|-5-------------------------------|
C|---------------------------------|
   . .   .   .   .   . .   . .

 Gtr.3

D|------This is 16 strums-----------|
A|----------------------------------|
F|-10101010101010101010101010101010-|
C|-x-x-x-x-x-x-x-x-x-x-x-x-x-x-x-x--|
G|-8-8-8-8-8-8-8-8-8-8-8-8-8-8-8-8--|
C|----------------------------------|


 Gtr.1

D|---------------------------------|
A|------This is 16 strums----------|
F|---------------------------------|
C|-8-8-8-8-8-8-8-8-8-8-8-8-8-8-8-8-|
G|-8-8-8-8-8-8-8-8-8-8-8-8-8-8-8-8-|
C|-8-8-8-8-8-8-8-8-8-8-8-8-8-8-8-8-|


 Gtr.2

D|---------------------------------|
A|---------1---3---5-----3-----1---|
F|-----3-------------------------3-|
C|---3---3---3---3---3-3---3-3-----|
G|-1-------------------------------|
C|---------------------------------|
   . .   .   .   .   . .   . .

 Gtr.3

D|------This is 16 strums----------|
A|---------------------------------|
F|-7-7-7-7-7-7-7-7-7-7-7-7-7-7-7-7-|
C|-x-x-x-x-x-x-x-x-x-x-x-x-x-x-x-x-|
G|-5-5-5-5-5-5-5-5-5-5-5-5-5-5-5-5-|
C|---------------------------------|


 Gtr.1

D|---------------------------------|
A|------This is 16 strums----------|
F|---------------------------------|
C|-5-5-5-5-5-5-5-5-5-5-5-5-5-5-5-5-|
G|-5-5-5-5-5-5-5-5-5-5-5-5-5-5-5-5-|
C|-5-5-5-5-5-5-5-5-5-5-5-5-5-5-5-5-|


 Gtr.2

D|-------------------------------------------------|
A|-------------10----11----13-------11-------10----|
F|-------12-------------------------------------12-|
C|----12----12----12----12----12-12----12-12-------|
G|-10----------------------------------------------|
C|-------------------------------------------------|
   .  .     .     .     .     .  .     .  .

 Gtr.3

D|------This is 16 strums--------------------------|
A|-------------------------------------------------|
F|-15-15-15-15-15-15-15-15-15-15-15-15-15-15-15-15-|
C|-x--x--x--x--x--x--x--x--x--x--x--x--x--x--x--x--|
G|-13-13-13-13-13-13-13-13-13-13-13-13-13-13-13-13-|
C|-------------------------------------------------|


 Gtr.1

D|---------------------------------|
A|------This is 16 strums----------|
F|---------------------------------|
C|-7-7-7-7-7-7-7-7-7-7-7-7-7-7-7-7-|
G|-7-7-7-7-7-7-7-7-7-7-7-7-7-7-7-7-|
C|-7-7-7-7-7-7-7-7-7-7-7-7-7-7-7-7-|


 Gtr.2

D|-18-17-15----------------------------------------------------------------|
A|----------18-17-15-18-17-15----------18-17-15----------------------------|
F|----------------------------18-16-14----------18-16-14-18-16-14----------|
C|----------------------------------------------------------------17-15-14-|
G|-------------------------------------------------------------------------|
C|-------------------------------------------------------------------------|
                          

 Gtr.3

D|---------------------------------------------|
A|---------------------------------------------|
F|-14-14-14-14-14-14-14-14-9-9-9-9-12-12-12-12-|
C|-x--x--x--x--x--x--x--x--x-x-x-x-x--x--x--x--|
G|-12-12-12-12-12-12-12-12-7-7-7-7-10-10-10-10-|
C|---------------------------------------------|



 < Ending >

 Gtr.1

D|-------|
A|-------|
F|-7~~//-|
C|-7~~//-|
G|-5~~//-|
C|-0~~//-|


 Gtr.2

D|--------|
A|--------|
F|--------|
C|-12~~//-|
G|--------|
C|--------|


 Gtr.3

D|-------|
A|-------|
F|-7~~//-|
C|-x-----|
G|-5~~//-|
C|-------|


 And you're done! Congratz! Enjoy the music
Tap to rate this tab
 
# A B C D E F G H I J K L M N O P Q R S T U V W X Y Z