Song name
# A B C D E F G H I J K L M N O P Q R S T U V W X Y Z

Krishna Beura - O Soniyo - From The Heart tab

Soni(A)yo… O Soni(F#m)yo…
Tumhe (G)dekhta hu to (D)sochta hu (A)bas yehi
Tum (A)jo… mera sath (F#m)do…
Sare (G)gam bhula ke ji lo (D)muskura ke… (A)zindagi…

Tu (A)dede mera sath… (A)tham le haath…
Chahe (F#m)jo bhi ho baat(F#m)…
Tu (G)bas de (D)de mera (A)sath…

Tu (A)dede mera sath… (A)tham le haath…
Chahe (F#m)jo bhi ho baat(F#m)…
Tu (G)bas de (D)de mera (A)sath…

Interlude

E ----16-14---14-14\12-12------------------------|
B -12---------------------14-12-12-12/14-14------|
G -----------------------------------------------|
D -----------------------------------------------|
A -----------------------------------------------|
E -----------------------------------------------|

E -----------------------------------------------|
B -14-16-14-12------14-12--------14-12--14/16-14-|
G -----------------------------------------------|
D ---------------14--------14-13-----------------|
A -----------------------------------------------|
E -----------------------------------------------|
Antra 1

Tujhme (A)hi dekha (A)hai… maine (F#m)manzil ko…
Tujhme (G)dhadkan mili…(D) is dil (A)ko…

Tujhme (A)hi dekha (A)hai… maine (F#m)manzil ko…
Tujhme (G)dhadkan mili…(D) is dil (A)ko…

Bin (F#m)tere…(F#m) kadmo ta(D)le…(D)
Ra(G)he nahi hai tujh(D)me kahi hai me(E)ri zameen…

Mukhda Again

Tu (A)dede mera sath… (A)tham le haath…
Chahe (F#m)jo bhi ho baat(F#m)…
Tu (G)bas de (D)de mera (A)sath…
Tu (G)bas de (D)de mera (A)sath…

Antra 2 same as Antra 1
Tap to rate this tab
 
# A B C D E F G H I J K L M N O P Q R S T U V W X Y Z