Guitaretab - guitar tabs
Song name
# A B C D E F G H I J K L M N O P Q R S T U V W X Y Z
Home / K / Krisiun / Doomed tab

Krisiun - Doomed tab

Band: Krisiun
Album: AssassiNation
Song: Doomed

Code:
Suffixes for bend:
fb - full bend       hb - half bend
qb - quarter bend    t - tap bend
r - release bend

Suffixes for harmonic:
^ - pinched harmonic      n  natural harmonic

Suffixes for mute:
.  palm mute            x  staccato mute
, - light palm mute      ; - heavy palm mute

Other:
/ - slide up to            \ - slide down to       
h - hammer on              p - pull off
" - tremolo note           <> - Trill
* - see comment

Tuning B E A D F# B

Whole song is clean, with reverb and chorus FX.
[ Tab from: http://www.guitaretab.com/k/krisiun/102393.html ]
Riff 1 (0:01) play 4 times
|-------------0------------------0------|
|----------10---9-------------10---9----|
|-------10--------10-------10--------10-|
|-----9------------------9--------------|
|---7------------------7----------------|
|-0------------------0------------------|

Riff 2 (0:17) play twice
|--------------0--------------------0-------|
|--------12-10---12-----------12-10---12----|
|-----10------------10-----10------------10-|
|---9--------------------9------------------|
|-8--------------------8--------------------|
|-------------------------------------------|

Riff 1 x 1 (0:21)

Riff 3 (0:25) play twice
|-------------0---------------------0-------|
|----------10-------------------------------|
|-------10------10------------13-14---13----|
|-----9------------9-------12------------12-|
|---8-------------------11------------------|
|-7------------------10---------------------|

Riff 1 x 1 (0:33)
Riff 2 x 1 (0:37)
Riff 1 x 2 (0:40), slow down, fade
End (1:00)
Related for Doomed tab