Song name
# A B C D E F G H I J K L M N O P Q R S T U V W X Y Z

Kristian Stanfill - Not Ashamed tab

Not Ashamed
Kristian Stanfill
Passion 2012
166 bpms
Tabbed by: Mariano Torrez
mtorrez23@gmail.com

Check my youtube Video
 


Capo on first fret

                INTRO

e|---------------------------------------------------------------|
B|---------------------------------------------------------------|
G|--------9------9-----11------9------7------9-------------------|
D|--------0------0------0------0------0------0-------------------|
A|---------------------------------------------------------------|
E|---------------------------------------------------------------|


Harmonics

e|---------------------|
B|-----------8+~~~-----|
G|---8+~~~-------------|
D|--------8+~~~--------|
A|---------------------|
E|---------------------|



                Chorus Lead Guitar

e|---------------------------------------------------------------|
B|---10-10-10-10-10-10-10-10------7--7--7--8--8--8-10-10---------|
G|---7--7--7--7--7--7--7--7-------7--7--7--7--7--7--7--7---------|
D|---------------------------------------------------------------|
A|---------------------------------------------------------------|
E|---------------------------------------------------------------|

e|----------------------------------------------------------------|
B|---10-10-10-10-10-10-10-10-----10-10-10-10-10-10-10-10----------|
G|---7--7--7--7--7--7--7--7-------9--9--9--9--9--9--9--9----------|
D|----------------------------------------------------------------|
A|----------------------------------------------------------------|
E|----------------------------------------------------------------|

e|----------------------------------------------------------------|
B|---7--7--7--7--7--7--7--7-------8--8--8--8--8--8--8--8----------|
G|---7--7--7--7--7--7--7--7-------7--7--7--7--7--7--7--7----------|
D|----------------------------------------------------------------|
A|----------------------------------------------------------------|
E|----------------------------------------------------------------|

Verse 1

Cm           G#        D#                A#
The power of Your love running through my heart
Cm                 G#            D#   A#
Shame has lost its grip on me
Cm           G#         D#           A#
The glory of Your cross shining on my soul
Cm              G#            D#             A#
Grace has got a hold on me. From the rooftops sing


Chorus

    D#                                   Cm
I'm not ashamed of the one who saved my soul
    D#                                   Cm
I'm not ashamed of the one who saved my soul, my soul
          D#                       Cm        G#
This fire inside of me is burning for your name
                D#     A#                  Cm        G#
I'm not ashamed. Hey! Hey! I'm not ashamed. Hey! Hey!


Interlude


Verse 2

The flame is getting stronger, the song is playing louder
We can't hide this love away
There's nothing to fear now, send us in Your pow'r
Jesus take us all the way. From the rooftops sing


Chorus


Instrumental x2
G#   Cm  D#


Bridge x2
G#                        Cm            D#
From the rooftops, sing! From the rooftops, sing!
G#                        Cm               D#             (F) 2nd time
From the rooftops, sing! I'm not ashamed! I'm not ashamed!
Tap to rate this tab
# A B C D E F G H I J K L M N O P Q R S T U V W X Y Z