Song name
# A B C D E F G H I J K L M N O P Q R S T U V W X Y Z

Kristiina Brask - Silmat Sydameeni tab

                          KRISTIINA BRASK: SILMAT SYDAMEENI

tabbed by: Dan Collin


INTRO: Am,G,F,E7 x2 or

e|----------------3-1------------------------|
B|----1-----3-3-------1---3-1-0--------------|
G|--2---2---0-------------------2------------| x2
D|-------------------------------------------|
A|-0-----------------------------------------|
E|----------3-----1-------0------------------|

Am  G    F    E7 
Oo vielä hetki,
Am   G       F        E7 
ilta tuoksuu talvelta taas.
Am   G    F   E7
Eteisessä ovi
Am     G       F    E7  
uneni hämyssä lukitaan.


  F       C 
Ei oo eka kerta,
    G      Am
kun tyynyni jää
F        C     E7
viereeni yksin viilenemään.


CHORUS:
    Am     
Moni katsoo,
  F 
ei nää
       C       G
sisään silmistäni.
      Am      F          C      G  
Sul on ainoat silmät mun sydämeeni.
F       C
Mietitkö vielä,
     G     E7        Am      F
miks kasvojani kyyneleet nuolevat,
    C        G         
tulisit, odotan sua vielä.


INTRO: Am,G,F,E7 x2 or

e|----------------3-1------------------------|
B|----1-----3-3-------1---3-1-0--------------|
G|--2---2---0-------------------2------------| x2
D|-------------------------------------------|
A|-0-----------------------------------------|
E|----------3-----1-------0------------------|


Am    G       F    E7 
Istun pöydällä aikaa,
Am       G       F      E7  
kuuntelen ikkunat natisee.
Am    G     F     E7 
Niiden läpi tuulee,
Am     G           F      E7
asunto hiljalleen viilenee.


F         C        G      Am 
Taikaa ei taaskaan yöhöni jää,
  F          C            E7 
ei kynttilän liekki jaksa lämmittää.


CHORUS:
    Am     
Moni katsoo,
  F 
ei nää
       C       G
sisään silmistäni.
      Am      F          C      G  
Sul on ainoat silmät mun sydämeeni.
F       C
Mietitkö vielä,
     G     E7        Am      F
miks kasvojani kyyneleet nuolevat,
    C        G         
tulisit, odotan sua vielä.


INTRO: Am,G,F,E7 x2 or

e|----------------3-1------------------------|
B|----1-----3-3-------1---3-1-0--------------|
G|--2---2---0-------------------2------------| x2
D|-------------------------------------------|
A|-0-----------------------------------------|
E|----------3-----1-------0------------------|

Dm    Am       G   
Askeleita oven takaa kuulen,
Dm    Am              Am  G
aamun mies vain jakaa lehden.


CHORUS:
    Am        F 
Eikä katso, ei nää
       C       G
sisään silmistäni.
      Am      F          C      G   
Sul on ainoat silmät mun sydämeeni.
F        C
Mietitkö vielä,
     G      E7     Am         F   
miks kasvojani kyyneleet nuolevat
   C           G 
tulisit jo tai anna mun mennä.

INTRO: Am,G,F,E7 x4 or

e|----------------3-1------------------------|
B|----1-----3-3-------1---3-1-0--------------|
G|--2---2---0-------------------2------------| x4
D|-------------------------------------------|
A|-0-----------------------------------------|
E|----------3-----1-------0------------------|

END OF SONG:

e|-------------------------------------------|
B|-----1-------------------------------------|
G|---2---2-----------------------------------|
D|-------------------------------------------|
A|-0-----------------------------------------|
E|-------------------------------------------|

Official website: http://www.kristiinabrask.fi/
Tap to rate this tab
 
# A B C D E F G H I J K L M N O P Q R S T U V W X Y Z