Guitaretab - guitar tabs
Song name
# A B C D E F G H I J K L M N O P Q R S T U V W X Y Z

Kristin Hersh - Tuesday Night tab

Kristin Hersh - Tuesday Night [Hips & Makers]

29.06.2008


intro:

|------------------------------|
|------------------------------|
|------------------------------|
|-2-0-0-2-2-0-2-----2-0-0-2-2--|
|------------------------------|
|---------------0-0------------|

  Em7                   Asus        riff1
|---------------0-----0---------0--|----------------------------------------|
|-----------3-------------------3--|----------------------------------------|
|-------0-----0---0-----------0-2--|----------------------------------------|
|---2-----2---------2-----0-2---2--|------------2-0-0-2-2-0-2-----2-0-0-2-2-|
|-----2-----------------0----------|--2-0-----------------------------------|
|-0--------------------------------|------3-0-0---------------0-0-----------|    2x


  Em7           Asus          riff1
|-----------------------0--|
|-----------3-----------3--|
|-------0-----0-------0-2--|   ......
|---2-----2-------0-2---2--|
|-----2---------0----------|
|-0------------------------|


  Em7                   Asus        riff1
|---------------0-----0---------0--|----------------------------------------|
|-----------3-------------------3--|----------------------------------------|
|-------0-----0---0-----------0-2--|----------------------------------------|
|---2-----2---------2-----0-2---2--|------------2-0-0-2-2-0-2-----2-0-0-2-2-|
|-----2-----------------0----------|--2-0-----------------------------------|
|-0--------------------------------|------3-0-0---------------0-0-----------|

[ Tab from: http://www.guitaretab.com/k/kristin-hersh/169364.html ]
  Em7                                 Asus          riff1
|---------------0-----0-----------------------0--|
|-----------3---------------------3-----------3--|
|-------0-----0---0-----------0-----0-------0-2--|   ......
|---2-----2---------2-----2-----2-------0-2---2--|
|-----2---------------------2---------0----------|
|-0---------------------0------------------------|


  Em7           Asus          riff1
|-----------------------0--|
|-----------3-----------3--|
|-------0-----0-------0-2--|   ......
|---2-----2-------0-2---2--|
|-----2---------0----------|
|-0------------------------|


  Em7                                                         Asus           riff1
|---------------0-----0---------------0-----0-------------------------0--|
|-----------3---------------------3---------------------3-------------3--|
|-------0-----0---0-----------0-----0---0-----------0-----0---------0-2--|    .....
|---2-----2---------2-----2-----2---------2-----2-----2---------0-2---2--|
|-----2---------------------2-------------------- 2-----------0----------|
|-0---------------------0---------------------0--------------------------|             2x

  Em7           Asus          riff1
|---------------0-------0--|
|-----------3---3-------3--|
|-------0-----0-2-----0-2--|   .....
|---2-----2-----2-0-2---2--|
|-----2--------------------|
|-0------------------------|


  Em7           Asus          riff1..     fade out...
|-----------------------0--|
|-----------3-----------3--|
|-------0-----0-------0-2--|   ......
|---2-----2-------0-2---2--|
|-----2---------0----------|
|-0------------------------|

When you sleep you tell me off
I told you once before
I can't resist you

When I sleep I build you up
I make you king of here
I can't resist you

I can't wait...

I'll suck down another water
While I wait

I watch the clock turn blue
And think of you while I wait

I can't wait...

The moon shines through my dress
And through my glass
I promise not to drink
Until you're home

I can't wait...

The moon pales even when
It thinks it holds the face
Of the clock I watch for you
While I wait

I can't wait...
Related for Tuesday Night tab
Tuesday Night chords by Kristin Hersh