Song name
# A B C D E F G H I J K L M N O P Q R S T U V W X Y Z

Kristin Hersh - Fly Around My Blue Eyed Girl chords

Highlighted       Show chord diagrams
intro & verses:

  C   C   D   D

---0---0---2---0--|
---1---1---3---3--|
------------------|
-----2---0---0----|    3x
-3----------------|
------------------|

  G   G   C   C   C   C

-----------0---0---0---0---|
-----------1---1---1---1---|
---0---0-------------------|
---0---0-----2-------2-----|
---------3-------3---------|
-3---3---------------------|


 C     C        D        D
Fly around my blue-eyed girl
 C      C       D D
Fly around my daisy
 C      C       D        D
Fly around my blue-eyed girl
    G        G      C C    C   C
You almost run me crazy

If you get there before I do,
Tell her if you please
Before she goes to make her bread
Roll up her dirty sleeves

Fly around my blue-eyed girl
Fly around my daisy
Fly around my blue-eyed girl
You almost run me crazy

I wish I had some pretty little gal
To tell my secrets to
To heck with all deceitful gals
Tell everything I do

Fly around my blue-eyed girl
Fly around my daisy
Fly around my blue-eyed girl
You almost run me crazy

Fly around my blue-eyed girl
Fly around my daisy
Fly around my blue-eyed girl
You almost run me crazy
Tap to rate this tab
 
# A B C D E F G H I J K L M N O P Q R S T U V W X Y Z