Song name
# A B C D E F G H I J K L M N O P Q R S T U V W X Y Z

Kristofer Astrom - I Am Not The Case tab

artist: kristofer astrm
song: i am not the case
album: loupita
http://www.kristoferastrom.com 

capo 3rd fret

intro
 e|-----3---3-------3---3-------3---3-------3---3---|
 b|-----1---1-------1---1-------1---1-------1---1---|
 g|-------------------------------------------------|
 d|-------------------------------------2-----------|
 a|-3-----------2-----------3-----------------------|
 e|-------------------------------------------------|
  ( 1   2   3 | 1   2   3 | 1   2   3 | 1   2   3   ) 

 e|-----3---3-------3---3-------3---3---------------|
 b|-----1---1-------1---1-------1---1---------------|
 g|-------------------------------------0-----------|
 d|-3-----------------------------------------------|
 a|-------------2-----------3-----------------------|
 e|-------------------------------------------------|
  ( 1   2   3 | 1   2   3 | 1   2   3 | 1   2   3   ) 

verse
 e|-----3---3-------3---3-------3---3-------3---3---|
 b|-----1---1-------1---1-------1---1-------1---1---|
 g|-------------------------------------------------|
 d|-------------------------------------2-----------|
 a|-3-----------2-----------3-----------------------|
 e|-------------------------------------------------|
  ( 1   2   3 | 1   2   3 | 1   2   3 | 1   2   3   ) 

 e|-----3---3-------3---3-------3---3---------------|
 b|-----1---1-------1---1-------1---1---------------|
 g|-------------------------------------0-----------|
 d|-3-----------------------------------------------|
 a|-------------2-----------3-----------------------|
 e|-------------------------------------------------|
  ( 1   2   3 | 1   2   3 | 1   2   3 | 1   2   3   ) 

 e|-----3---3-------3---3-------3---3-------3---3---|
 b|-----1---1-------1---1-------1---1-------1---1---|
 g|-------------------------------------------------|
 d|-------------------------------------2-----------|
 a|-3-----------2-----------3-----------------------|
 e|-------------------------------------------------|
  ( 1   2   3 | 1   2   3 | 1   2   3 | 1   2   3   ) 

 e|-----3---3-------3---3-------3---3---------------|
 b|-----1---1-------1---1-------1---1---------------|
 g|-------------------------------------0-----------|
 d|-3-------------------------------------------0-2-|
 a|-------------2-----------3-----------------------|
 e|-------------------------------------------------|
  ( 1   2   3 | 1   2   3 | 1   2   3 | 1   2   3   ) 

chorus
 e|-----3---3-------3---3-------3---3-------3---3---|
 b|-----1---1-------1---1-------1---1-------1---1---|
 g|-------------------------------------------------|
 d|-3-----------2-----------------------------------|
 a|-------------------------2-----------0-----------|
 e|-------------------------------------------------|
  ( 1   2   3 | 1   2   3 | 1   2   3 | 1   2   3   ) 

 e|-----3---3-------3---3-------3---3---------------|
 b|-----1---1-------1---1-------1---1---------------|
 g|-------------------------------------0-----------|
 d|--------------------------------------------(0-2)|
 a|-2-----------0-----------3-----------------------|
 e|-------------------------------------------------|
  ( 1   2   3 | 1   2   3 | 1   2   3 | 1   2   3   ) 

end
 e|-----3---3-------3---3-------3---3-------3---3---|
 b|-----1---1-------1---1-------1---1-------1---1---|
 g|-0h2---------------------------------------------|
 d|-3-----------2-----------0-----------0h2---------|
 a|-------------------------2-----------0-----------|
 e|-------------------------------------------------|
  ( 1   2   3 | 1   2   3 | 1   2   3 | 1   2   3   ) 

 e|-----3---3-------3---3-------3---3---------------|
 b|-----1---1-------1---1-------1---1---------------|
 g|-------------------------------------0-----------|
 d|-0-----------0h2---------2-------------------0-2-|
 a|-2-----------0-----------3-----------------------|
 e|-------------------------------------------------|
  ( 1   2   3 | 1   2   3 | 1   2   3 | 1   2   3   ) 

 e|-----3---3-------3---3-------3---3-------3---3---|
 b|-----1---1-------1---1-------1---1-------1---1---|
 g|-0h2---------0-----------------------------------|
 d|-3-----------2-----------0-----------0h2---------|
 a|-------------------------2-----------0-----------|
 e|-------------------------------------------------|
  ( 1   2   3 | 1   2   3 | 1   2   3 | 1   2   3   ) 

 e|-----3---3-------3---3-------3---3---3-----------|
 b|-----1---1-------1---1-------1---1---1-----------|
 g|-------------------------------------------------|
 d|-0-----------0h2---------2-----------------------|
 a|-2-----------0-----------3-------2---3-----------|
 e|-------------------------------------------------|
  ( 1   2   3 | 1   2   3 | 1   2   3 | 1   2   3   ) 
Tap to rate this tab
# A B C D E F G H I J K L M N O P Q R S T U V W X Y Z