Song name
# A B C D E F G H I J K L M N O P Q R S T U V W X Y Z

Kristofer Astrom - Douglas Furtree tab

CAPO FRET 3

                                                           4x
||----3-----3---|---3-----3---|---3-----3---|---3-----3----||
||o-----3-----3-|-----3-----3-|-----3-----3-|-----3-----3-o||
||--------------|-------------|-------------|--------------||
||--------------|-------------|-------------|--------------||
||o-2-----2-----|-2-----2-----|-3-----3-----|-3-----3-----o||
||--------------|-------------|-------------|--------------||




|---3-----3---|---3-----3---|---5-----5---|---5-----5----|
|-----0-----0-|-----0-----0-|-----0-----0-|-----0-----0--|
|-------------|-------------|-------------|--------------|
|-2-----2-----|-2-----2-----|-4-----4-----|-4-----4------|
|-------------|-------------|-------------|--------------|
|-------------|-------------|-------------|--------------|


|---7-----7---|---7-----5---|---5-----5---|---5-----5----|
|-----0-----0-|-----0-----0-|-----0-----0-|-----0-----0--|
|-------------|-------------|-------------|--------------|
|-5-----5-----|-5-----4-----|-4-----4-----|-4-----4------|
|-------------|-------------|-------------|--------------|
|-------------|-------------|-------------|--------------|


|---3-----3---|---3-----3---|---3-----3---|---3-----3----|
|-----3-----3-|-----3-----3-|-----3-----3-|-----3-----3--|
|-------------|-------------|-------------|--------------|
|-2-----2-----|-2-----2-----|-0-----0-----|-0-----0------|
|-------------|-------------|-------------|--------------|
|-------------|-------------|-------------|--------------|


|---3-----3---|---3-----3---|---3-----3---|---3-----3----|
|-----3-----3-|-----3-----3-|-----3-----3-|-----3-----3--|
|-------------|-------------|-------------|--------------|
|-------------|-------------|-------2-----|-0-----0------|
|-3-----3-----|-3-----2-----|-0-----------|--------------|
|-------------|-------------|-------------|--------------|




|---3-----3---|---3-----3---|------|
|-----3-----3-|-----3-----3-|------|
|-------------|-------------|------|
|-------------|-------------|------|
|-0-----0-----|-0-----0-----|------|
|-------------|-------------|-3----|




it's over now
cause I couldn't convince her to stay
and it's all in my head
the reason I'm not dead
what follows me around
is the darkest cloud

it's over now
cause I couldn't convince her to stay
and it's all in my head
the reason I'm not dead
what follows me around
is the darkest cloud

it's over now

http://www.kristoferastrom.com/main.asp 
Tap to rate this tab
# A B C D E F G H I J K L M N O P Q R S T U V W X Y Z