Song name
# A B C D E F G H I J K L M N O P Q R S T U V W X Y Z

Kristofer Astrom - Masterdamn tab

Capo på 2:a (eller om det var 3:e) bandet

  Fig 1:
|-----------------|-----------------|
|-----------------|-----------------|
|-----------------|---------0-------|
|-----0-----------|-0---0-----0---0-|
|---0---0---0---0-|---0---0-----0---|
|-2-------2---3---|-----------------|


  Fig 2:
|-----------------|-----------------|-------------------|-----------------|
|-----------------|---------0-------|-------------------|---------0-------|
|-----0-------2---|-----2-----2-----|-------0-------2---|-----2-----2-----|
|---0---0---0---0-|---0---0-----0---|-----0---0---0---0-|---0---0-----0---|
|-----------------|-2-------------0-|-3h5-------5-------|-5-------------0-|
|-3-------3-------|-----------------|-------------------|-----------------|



too far away
you'll have to stay
                   
too far away                          
you'll have to stay
                   
alone
coming home

too far away

http://www.kristoferastrom.com/main.asp 
Tap to rate this tab
 
# A B C D E F G H I J K L M N O P Q R S T U V W X Y Z