Song name
# A B C D E F G H I J K L M N O P Q R S T U V W X Y Z

Kristofer Dahl - Lessons tab

Help us improve GuitareTab! Take a short survey!

17-20-19-18-|
------------|
------------|
------------|
------------|
------------|


A harmonic minor notes on the e-string

e|20-19-17-15-13-12-10-8-7-5-4--------------------------------------------------------------|
b|------------------------------------------------------------------------------------------|
g|------------------------------------------------------------------------------------------|
d|------------------------------------------------------------------------------------------|
a|------------------------------------------------------------------------------------------|
e|------------------------------------------------------------------------------------------|

"Long Lick"

e|-17-20-19-17--13-18-17-13--16-19-17-16--12-16-13-12--13-17-16-13--10-13-12-10--12-16-13-12|
b|------------------------------------------------------------------------------------------|
g|------------------------------------------------------------------------------------------|
d|------------------------------------------------------------------------------------------|
a|------------------------------------------------------------------------------------------|
e|------------------------------------------------------------------------------------------|

e|-8-12-10-8--10-13-12-10--7-10-8-7--8-12-10-8--5-8-7-5--7-10-8-7--4-7-5-4------------------|
b|------------------------------------------------------------------------------------------|
g|------------------------------------------------------------------------------------------|
d|------------------------------------------------------------------------------------------|
a|------------------------------------------------------------------------------------------|
e|------------------------------------------------------------------------------------------|

5---------|
--5-------|
----5-----|
------7---|
--------7-|
----------|


Segment1

-------8h12p8-----8h12/17-|
-----10------10-10--------|
----9----------9----------|
--10----------------------|
12------------------------|
--------------------------|

Segment2

17p12---------|
-----13-------|
-------14-----|
---------14---|
-----------15-|
--------------|

Segment3

-------8h12-17/20\17p12p8--------|
-----10------------------10------|
----9----------------------9-----|
--10------------------------10---|
12----------------------------12-|
---------------------------------|

e|-11---12--|
b|-14b--15b-|
g|----------|
d|----------|
a|----------|
e|----------|
Related for Lessons tab