Song name
# A B C D E F G H I J K L M N O P Q R S T U V W X Y Z

Kristy Lee - Late At Night tab

The other version pretty much got it right.  But if you're interested in picking through 
song, this is how I play it!  This is my first tab so let me know if I could do things better!


Fig 1 (Intro = Fig 1 x2 with a slight pause at the end)

   G                         C
e------3---------------3-----------------0-------------|
B---------3-----3----------3-----3----------1-----1----|
G----0-------0-------0--------0--------0-------0-------|
D------------------------------------------------------|
A------------------------------------3-----------------|
E--3---------------2-----------------------------------|

It's late at night
And I can't sleep
So I lie
Awake and try to think

But when you hold me
The way you do
I have no choice
But to fall in love with you
(pause from playing)

It's late at night x2

And sometimes it hurts so bad
When I think about all the times we've had
And all the memories that I've made
Of us together are falling away

And I'm falling too x2

Fig 2
   Em    D             C
e--0--0--2--2--2-2-2--0--0--0--0-0--0-0-0---|
B--0--0--3--3--3-3-3--1--1--1--1-1--1-1-1---|
G--0--0--2--2--2-2-2--0--0--0--0-0--0-0-0---|
D--2--2--0--0--0-0-0--2--2--2--2-2--2-2-2---|
A--2--2---------------3--3--3--3-3--3-3-3---|
E--0--0-------------------------------------|

It's late at night x4

[strum Fig 1]

Do you think
Do you see
Do you even believe in me
Do you feel the same
Leaving me to blame
For all your pain

Do you think
Do you see
Do you even believe in me
Do you feel the same
Leaving me to blame
For all your pain
(pause)

[return to picking Fig 1]

It's late at night x2

(It's late at night)
Too late to call
You've fallen asleep
And fall away from me  x2

[strum Fig 1]

Do you think
Do you see
Do you even believe in me
Do you feel the same
Leaving me to blame
For all your pain  x2
(pause)

[pick Fig 1]

It's late at night...
(repeated until the end)

Outro
   G                                 C                                  G
e------3---------------3-----------------0------------------3-----------3---|
B---------3-----3----------3-----3----------1-----1-------1---1---------3---|
G----0-------0-------0--------0--------0-------0--------0-------0---0---0---|
D-----------------------------------------------------------------2-----0---|
A------------------------------------3----------------3-----------------2---|
E--3---------------2----------------------------------------------------3---|

                           <-----gradually slow down----->
Tap to rate this tab
# A B C D E F G H I J K L M N O P Q R S T U V W X Y Z