Song name
# A B C D E F G H I J K L M N O P Q R S T U V W X Y Z

Krokus - Rock City tab

Krokus
Album: Hardware
Song: Rock city

E--------3-----------3----------3------------3----|
B--------3-----------3----------3------------3----|
G--------3-----------5<---------3<-----------3----|
D--------5<----------5<---------3<-----------5<---|
A--------5<----------3----------3------------5<---|
E--------3-----------3----------3------------3----|

E--------3----3----3----3----3----3-|
B--------3----3----3----3----3----3-|
G--------3----3----5<---3----5<---3-|
D--------5<---5<---5<---5<---5<---3-|
A--------5<---5<---3----5<---3----3-|
E--------3----3----3----3----3----3-|

Repeat 4x
Tap to rate this tab
# A B C D E F G H I J K L M N O P Q R S T U V W X Y Z