Song name
# A B C D E F G H I J K L M N O P Q R S T U V W X Y Z

Krokus - Playin The Outlaw tab

Krokus
Playin the Outlaw tabbed by jerijimi

       Intro play 1 time
   E -----------------------------------0-0h2-0-----0----------------------|
   B ----0-2-2h3-2-0-2-0------0-----3------------3----3-2-2h3--------------|
   G ----------------------2-----------------------------------------------|
   D ----------------------------------------------------------------------|
   A ----------------------------------------------------------------------|
   E ----------------------------------------------------------------------|

        Verse play 15 times

     ------------------------------------------------|
     ------------------------------------------------|
     ---4--7--9--7--4--7--9--7-----------------------|
     ---4--7--9--7--4--7--9--7-----------------------|
     ---2--5--7--5--2--5--7--5-----------------------|
     ------------------------------------------------|


       Chorus

     -------------------------------------------------|
     -------------------------------------------------|
     --4--4--9--7-------------------------------------|
     --4--4--9--7-------------------------------------|
     --2--2--7--5-------------------------------------|
     -------------------------------------------------|

     ---------------------------------------------|
     ---------------------------------------------|
     ----9--9--14--12-----------------------------|
     ----9--9--14--12-----------------------------|
     ----7--7--12--10-----------------------------|
     ---------------------------------------------|
Tap to rate this tab
 
# A B C D E F G H I J K L M N O P Q R S T U V W X Y Z