Kromlek - Herjan tab

The main riff of Kromleks song Herjan
Enjoy it \m/

Note:
I play the first three tones with slow tremolo picking so it sounds nearly like the original

Tempo = 100

Legend
L - tied note
x - dead note
h - hammer on/pull off
b - bend
s - slide
~ - vibrato
g - ghost note
> - accentuated note
t - trill
M - palm mute
. - staccato
P - popping (bass)
S - slapping (bass)
+ - tapping
W - wide vibrato
< - fade in
w - whammy bar
= - tremolo picking
v - brush up
^ - brush down
V - pick stroke up
n - pick stroke down


E |--------------------8--------------8----|
B |-----------8--------------------8-------|
G |--5-------------------------------------|
D |----------------------------------------|
A |----------------------------------------|
E |----------------------------------------|


--5-----5--5----------------------------|
--------------8--6--8-------------------|
----------------------------------------|
----------------------------------------|
----------------------------------------|
----------------------------------------|


--------------------8--------------8----|
-----------8--------------------8-------|
--5-------------------------------------|
----------------------------------------|
----------------------------------------|
----------------------------------------|


--11----11-10-8-----8-------------------|
-----------------11---------------------|
----------------------------------------|
----------------------------------------|
----------------------------------------|
----------------------------------------|
Tap to rate this tab
 
# A B C D E F G H I J K L M N O P Q R S T U V W X Y Z