Song name
# A B C D E F G H I J K L M N O P Q R S T U V W X Y Z

Kruder Und Dorfmeister - Bug Powder Dust tab

-------------------------------------------------------------------------------
                    Bug Powder Dust   -  Kruder und Dorfmeister
-------------------------------------------------------------------------------
Tabbed by: Martin Messner
Email: BigBonsai@hotmail.de

Tuning: Standard

//////////////////////////////////////////////
//                                          //
//  RATING THIS TAB TAKES ABOUT 5 SECONDS   //
//  AND HELPS ME TO IMPROVE MY WORK         //
//                                          //
//////////////////////////////////////////////


Version#1
e|----------------------------------------|
B|----------------------------------------|
G|----------------------------------------|
D|----------------------------------------|
A|--5---7-7h8p7-5---7-7h8p7------------3--|
E|--------------------------6---5h6-------|

Version#2
e|----------------------------------------|
B|----------------------------------------|
G|----------------------------------------|
D|----------------------------------------|
A|--5---7-7h8p7-5-----3h5--------------3--|
E|-------------------------------5h6------|

Version#3
e|----------------------------------------|
B|----------------------------------------|
G|----------------------------------------|
D|----------------------------------------|
A|--5---------------7-7h8p7-------7-7h8p7-|
E|--------------------------6-------------|

http://en.wikipedia.org/wiki/Kruder_%26_Dorfmeister
To prove they are offical artists
Tap to rate this tab
 
# A B C D E F G H I J K L M N O P Q R S T U V W X Y Z