Krum Bums - Intro tab

Artist: Krum Bums
Song: Intro


Verse

e| |-------------------------------------|
B| |-------------------------------------|
G| |--4--------------9---7---6---4-------|
D| |--4----5----2----9---7---6---2-------|
A| |--2----5----2----7---5---4---2-------|
E| |-------3----0------------------------|

Riff

e| |----------------------------------------------------------------|
B| |----------------------------------------------------------------|
G| |--4-7-7-6-4-6-7---7-7h9-7-6-4-4---7-7-6-4/-9-7-6-4--7-7-6-4-4---|
D| |----------------5---------------5-------------------------------|
A| |----------------------------------------------------------------|
E| |----------------------------------------------------------------|

Riff 2

e| |----------------------------------------------------------------|
B| |----------------------------------------------------------------|
G| |--4-7-7-6-4-6-7---7-7h9-7-6-4-4---7-7-6-4/-9-7-6-4/--9-7-6-4----|
D| |----------------5---------------5-------------------------------|
A| |----------------------------------------------------------------|
E| |----------------------------------------------------------------|
Tap to rate this tab
 
# A B C D E F G H I J K L M N O P Q R S T U V W X Y Z