Song name
# A B C D E F G H I J K L M N O P Q R S T U V W X Y Z

Krum Bums - Krum Bums tab

Help us improve GuitareTab! Take a short survey!
e|------------------------------------------------------------|
B|------------------------------------------------------------|
G|-444----------444----------444----------4-6-7-6-------------|
D|-444-4\6-4\6--444-4\6-4\6--444-4\6-4\6--4-6-7-6-------------| x3 
A|-222-4\6-4\6--222-4\6-4\6--222-4\6-4\6--2-4-5-4-------------|
E|-----2\4-2\4------2\4-2\4------2\4-2\4----------------------|

e|----------------------|
B|----------------------|
G|-444-77-66------------|
D|-444-77-66-555-77-44--| x4
A|-222-55-44-555-77-44--|
E|-----------333-55-22--|

e|------------------------------------------------------------|
B|------------------------------------------------------------|
G|-444----------444----------444----------4-6-7-6-------------|
D|-444-4\6-4\6--444-4\6-4\6--444-4\6-4\6--4-6-7-6-------------| x2
A|-222-4\6-4\6--222-4\6-4\6--222-4\6-4\6--2-4-5-4-------------|
E|-----2\4-2\4------2\4-2\4------2\4-2\4----------------------|

e|----------------------|
B|----------------------|
G|-444-77-66------------|
D|-444-77-66-555-77-44--| x4
A|-222-55-44-555-77-44--|
E|-----------333-55-22--|

e|------------------------------------------------------------|
B|------------------------------------------------------------|
G|-444----------444----------444----------4-6-7-6-------------|
D|-444-4\6-4\6--444-4\6-4\6--444-4\6-4\6--4-6-7-6-------------| x2
A|-222-4\6-4\6--222-4\6-4\6--222-4\6-4\6--2-4-5-4-------------|
E|-----2\4-2\4------2\4-2\4------2\4-2\4----------------------|

then do pick slide then the solo

e|--------------------------------------------|
B|--------------------------------------------|
G|-444-7-6---444-7-6---444-7-6----------------|
D|---------7---------7---------7---555-777----|x2
A|--------------------------------------------|
E|--------------------------------------------|

e|--------------------------------|
B|------------------------888-7---|
G|--444444-666666-777777----------|
D|--------------------------------|x2
A|--------------------------------|
E|--------------------------------|

e|----------------------|
B|----------------------|
G|-444-77-66------------|
D|-444-77-66-555-77-44--| x3 
A|-222-55-44-555-77-44--|
E|-----------333-55-22--|

e|---------------------|
B|---------------------|
G|-444-77-66---4-6-7-6-|
D|-444-77-66---4-6-7-6-| x4
A|-222-55-44---2-4-5-4-|
E|---------------------|

e|------------------------------------------------------------|
B|------------------------------------------------------------|
G|-444----------444----------444----------4-6-7-6-------------|
D|-444-4\6-4\6--444-4\6-4\6--444-4\6-4\6--4-6-7-6-------------| x2
A|-222-4\6-4\6--222-4\6-4\6--222-4\6-4\6--2-4-5-4-------------|
E|-----2\4-2\4------2\4-2\4------2\4-2\4----------------------|

the single notes are the base

e|-----------------------------------------------|
B|-----------------------------------------------|
G|-44---------44---------44---------4-6-7-6------|
D|-44---------44---------44---------4-6-7-6------| x2
A|-22---------22---------22---------2-4-5-4------|
E|----2\4-2\4----2\4-2\4----2\4-2\4--------------|

e|------------------------------------------------------------|
B|------------------------------------------------------------|
G|-444----------444----------444----------4-6-7-6-------------|
D|-444-4\6-4\6--444-4\6-4\6--444-4\6-4\6--4-6-7-6-------------| 
A|-222-4\6-4\6--222-4\6-4\6--222-4\6-4\6--2-4-5-4-------------|
E|-----2\4-2\4------2\4-2\4------2\4-2\4----------------------|

and there you go
if you need other krum bums songs send me a mesage on ultimate-guitar "manok"
Related for Krum Bums tab