Song name
# A B C D E F G H I J K L M N O P Q R S T U V W X Y Z

Krux - Sibiria tab

                                                                       
|--------------------------|----------------------|----------------------|
|--------------------------|----------------------|----------------------|
|-------0------------------|-------0--------------|-------0--------------|
|------------4-------------|------------4---------|------------4---------|
|-----------------3--------|-----------------3----|-----------------3----|
|--0-----------------------|--0-------------------|--0-------------------|

                                                                          
----------------------|--------------------------|----------------------|
----------------------|--------------------------|----------------------|
-------0--------------|-------0------------------|----------------------|
------------4---------|------------4-------------|----------------------|
-----------------3----|-----------------3--------|----------------------|
--0-------------------|--0-----------------------|--0-------------------|
Tap to rate this tab
# A B C D E F G H I J K L M N O P Q R S T U V W X Y Z