Song name
# A B C D E F G H I J K L M N O P Q R S T U V W X Y Z

Krypteria - The Tears I Cry tab

Video cover:
http://www.youtube.com/watch?v=EfmiQDS3wuw

Chords before solo

G#5,E5

Solo 1 chords

G#5,E5,C#5,D#5  2x

Solo 1
E----------------------------------14--16----16--18--19--18------16----15^---|
B--------12--14--16----14--16--17----------------------------16--------------|
G-13--15---------------------------------------------------------------------|
D----------------------------------------------------------------------------|
A----------------------------------------------------------------------------|
E----------------------------------------------------------------------------|


E---------------------------14-16---16--18--19-18-19--16--18--19-18-19-------|
B-------12-14-16---14-16-17--------------------------------------------------|
G-13-15----------------------------------------------------------------------|
D----------------------------------------------------------------------------|
A----------------------------------------------------------------------------|
E----------------------------------------------------------------------------|

E-16--18--19-18-19--21--22^--21--19--18-----|
B-------------------------------------------|
G-------------------------------------------|
D-------------------------------------------|
A-------------------------------------------|
E-------------------------------------------|


Chords

B5,F#5,G#5,E5,F#5  4x


Solo 2
E----------------------------------------------|
B-----5-7-----4-5------------------------------|
G-8-8-----6-6-----4-4-6-8-9-8-6-9-8------------|
D----------------------------------------------|
A----------------------------------------------|
E----------------------------------------------|

E----------------------------14----------------|
B-----5-7-----4-5------------------------------|
G-8-8-----6-6-----4-4-6-8-9--------------------|
D----------------------------------------------|
A----------------------------------------------|
E----------------------------------------------|
Tap to rate this tab
 
# A B C D E F G H I J K L M N O P Q R S T U V W X Y Z