Song name
# A B C D E F G H I J K L M N O P Q R S T U V W X Y Z

Krystal Meyers - Sing For Me tab

-------------------------------------------------------------------------------
			             Sing For Me - The Fiery Furnaces
-------------------------------------------------------------------------------
Tabbed by: The Valrus
Email:     valrus@bluebottle.com

Tuning:    Standard

/*==================================|Chords|==================================*/

Chorus:

[C]      [Fm]                [C]      [Fm]
Sing for me,    my daughter, sing for me.

         [Dm]        [G]      [C]                            [G]
When I'm away you'll be the siren that will finally bring me home.


Verse:

[C]                   [G]         [C]                  [Dm]
The girl around her father throws her arms to make him stay.

[Dm]                [F]            [Fm]                [G]
"My Daddy dear it hails, it blows;     you cannot go today!"


Bridge:

[Eb]    [Ab]    [Eb]    [Ab]    [Eb]    [Ab]    [G]

/*===================================|Fills|==================================*/

Bridge fill:

    [Eb]        [Ab]        [Eb]                    [Ab]

E |-4-----------5-----------4-----------------------5----|
B |-5--------5--5--------5--5--7--5--4--5--4--6--4--5----|
G |-4-----------6-----------4-----------------------6----|
D |-6-----------7-----------6-----------------------7----|
A |-7-----------7-----------7-----------------------7----|
E |-------------5-----------------------------------5----|


      [Eb]                    [Ab]     [G]

E |----4-----------------------5--------3-|
B |-5--5--7--5--4--5--4--6--4--5--------3-|
G |----4-----------------------6--------4-|
D |----6-----------------------7--------5-|
A |----7-----------------------7--------5-|
E |----------------------------5--------3-|

/*=================================|Chord Ref|================================*/

    [C]    [Fm]  [Fm]*    [Dm]   [G]    [G]*    [Eb]    [Ab]

e    0      4    4         1      7      3       3       4
B    1      1    6         3      8      3       4       4
G    0      1    5         2      7      0       3       5
D    2      3    6         0      9      0       5       6
A    3      3    -         -      10     2       6       6
E    -      1    -         -      -      3       -       4

* indicates alternate version of the given chord which might be easier to play.

/*=====================================||=====================================*/
Tap to rate this tab
 
# A B C D E F G H I J K L M N O P Q R S T U V W X Y Z