Song name
# A B C D E F G H I J K L M N O P Q R S T U V W X Y Z

Krystal Meyers - My Savior tab

This is both tab and chords. On the chords I will leave you to figure out the strum pattern.
Capo 2

Key
^ - hammer
/ - slide

Intro

Guitar 1
e---------------------------------|
b---------------------------------|
g-2-2-2-2-2-2-2/4-2-0-0-0-0-2^4/7-|
d-0-0-0-0-0-0-0---0---------------|  repeat once
a---------------------------------|
E---------------------------------|

Guitar 2
e-2-2-2-2-3-3-3-3--|
b-3-3-3-3-3-3-3-3--|
g--2-2-2-2-2-2-2-2-|
d------------------|  repeat once
a------------------|
E------------------|

Guitar 1
e-------------------------|
b-------------------------|
g-777777667777777777777777
d-xxxxxxxxxxxxxxxxxxxxxxxx repeat once
a-555555445555555555555555
E-------------------------

Guitar 2
D A Em G A  repeat once

Verse
Em7 G D A  repeat x3
Em7 G D

I feel guilty sometimes when I pray
Stealing time from needs that are great
Still you listen to every word I say
And I want to thank you

Pre-Chorus
A C A C
And I
I'm amazed to call you mine

Chorus
Bm G D A repeat x3
Em G

My Savior
I'm laying it at your feet
Your love, it consumes me
My Saviot
You've given me all I need
Your grace and your mercy

Pre Verse
(same as Intro except you don't repeat it)

Verse 2
(same as Verse 1)

I've been thinking about what you did
I'm empty handed
So what could I give?
But all you ask of me is the life that I live
So I'll be faithful

Pre-Chorus

Chorus

Bridge (sorry no strum pattern)

e-x-x-x-2- -x-x-x-|
b-5-3-3-3- -5-3-2-|
g-5-4-3-2- -5-4-2-|
d-5-5-3-0- -5-5-2-|  repeat once
a-3-2-1-x- -3-2-0-|
E-x-x-x-x- -x-x-x-|

I never want to be away
Forever I'll pursue
Anything it takes to be with you

Guitar Solo
(same as Intro)

Chorus
(the first time around is just the normal chorus chords)
(the second time around you can also use the Intro tab)


The End...I'm sorry if it was confusing for you...it's the very first tab/chord I've 
written...ENJOY!!!
Tap to rate this tab
# A B C D E F G H I J K L M N O P Q R S T U V W X Y Z