Song name
# A B C D E F G H I J K L M N O P Q R S T U V W X Y Z

Ks Choice - Song For Catherine tab

Verse
G------------------------------------------|
D------------------------------------------|
A-------------------------------(2)--------|
E-2222222-(4)-00000000-2-44444444-22222222-|

G----------------------------------------|
D----------------------------------------|
A-----------------(2)--------------------|
E-0000000-2-4444444-2222222-(4)-00000000-|

(Drum comes in)
G--------------------------------------------|
D--------------------------------------------|
A---------------------(2)-44444444-----------|
E-4444444-(2)-0000000------------(2)-0000000-|

Interlude
G---|
D---|
A---|
E-2-|

Verse (play last bar 2x)

Bridge (lalala...)
G-----------------------------------------------|
D-----------------------------------------------|
A-22222222222-1---------------------------------|
E---------------44444444-22222222222-4-00000000-|x3

G----------------------------------------|
D----------------------------------------|
A-22222222222-1--------------------------|
E---------------44444444-22222222222-4-0-|

Enjoy!

Tabbed by Nina
Tap to rate this tab
# A B C D E F G H I J K L M N O P Q R S T U V W X Y Z