Guitaretab - guitar tabs
Song name
# A B C D E F G H I J K L M N O P Q R S T U V W X Y Z

Ks Choice - Not An Addict tab

K's Choice - Not an Addict


Tuning	: EADGBe

Intro:
|-----------------|-----------------|-----------------|-----------------|
|-----------------|-----------------|-----------------|-----------------|
|-----------------|-----------------|-----------------|-----------------|
|-----------------|-----------------|-----------------|-----------------|
|-0-0-0-0-0-0-0-0-|-4-4-4-4-4-4-4-4-|-2-2-2-2-2-2-2-2-|-2-2-2-2-6-7-6-2-|
|-----------------|-----------------|-----------------|-----------------|

|-----------------|-----------------|-----------------|-----------------|
|-----------------|-----------------|-----------------|-----------------|
|-2-2-2-2-2-2-2-2-|-6-6-6-6-6-6-6-6-|-4-4-4-4-4-4-4-4-|-4-4-4-4-4-4-4-4-|
|-2-2-2-2-2-2-2-2-|-6-6-6-6-6-6-6-6-|-4-4-4-4-4-4-4-4-|-4-4-4-4-4-4-4-4-|
|-0-0-0-0-0-0-0-0-|-4-4-4-4-4-4-4-4-|-2-2-2-2-2-2-2-2-|-2-2-2-2-2-2-2-2-|
|-----------------|-----------------|-----------------|-----------------|


Verse:
|-----------------|-----------------|-----------------|-----------------|
|-----------------|-----------------|-----------------|-----------------|
|-2-2-2-2-2-2-2-2-|-6-6-6-6-6-6-6-6-|-4-4-4-4-4-4-4-4-|-4-4-4-4-4-4-4-4-|
|-2-2-2-2-2-2-2-2-|-6-6-6-6-6-6-6-6-|-4-4-4-4-4-4-4-4-|-4-4-4-4-4-4-4-4-|
|-0-0-0-0-0-0-0-0-|-4-4-4-4-4-4-4-4-|-2-2-2-2-2-2-2-2-|-2-2-2-2-2-2-2-2-|
|-----------------|-----------------|-----------------|-----------------|

Breathe it in and breathe it out
And pass it on, it's almost out
We're so creative, so much more
We're high above but on the floor


Chorus:
|-----------------|-----------------|-----------------|-----------------|
|-----------------|-----------------|-----------------|-----------------|
|-----------------|-----------------|-----------------|-----------------|
|-2-2-2-2-4-4-4-4-|-7-7-7-7-7-7-7-7-|-2-2-2-2-4-4-4-4-|-7-7-7-7-7-7-7-7-|
|-2-2-2-2-4-4-4-4-|-7-7-7-7-7-7-7-7-|-2-2-2-2-4-4-4-4-|-7-7-7-7-7-7-7-7-|
|-0-0-0-0-2-2-2-2-|-5-5-5-5-5-5-5-5-|-0-0-0-0-2-2-2-2-|-5-5-5-5-5-5-5-5-|

It's not a habit, it's cool, I feel alive
If you don't have it you're on the other side
[ Tab from: http://www.guitaretab.com/k/ks-choice/30456.html ]
|-----------------|
|-----------------|
|-----------------|
|-7---7---7---7---|
|-6---7---6---7---|
|-5-5-5-5-5-5-5-5-|


Verse:

The deeper you stick it in your vein
The deeper the thoughts, there's no more pain
I'm in heaven, I'm a god
I'm everywhere, I feel so hot

Chorus:

It's not a habit, it's cool, I feel alive
If you don't have it you're on the other side
I'm not an addict maybe that's a lie

Verse:

It's over now, I'm cold, alone
I'm just a person on my own
Nothing means a thing to me
Nothing means a thing to me

Chorus:

It's not a habit, it's cool, I feel alive
If you don't have it you're on the other side
I'm not an addict maybe that's a lie


Bridge:
 { - - - - - - - - - - - - - - - - 2x - - - - - - - - - - - - - - - - -}
|-----------------|-----------------|-----------------|-----------------|
|-----------------|-----------------|-----------------|-----------------|
|-9-9-9-9-9-9-9-9-|-7-7-7-7-7-7-7-7-|-4-xxxxxx4-xxxxxx|-4-xxxxxx4-xxxxxx|
|-9-9-9-9-9-9-9-9-|-7-7-7-7-7-7-7-7-|-4-xxxxxx4-xxxxxx|-4-xxxxxx4-xxxxxx|
|-7-7-7-7-7-7-7-7-|-5-5-5-5-5-5-5-5-|-2-xxxxxx2-xxxxxx|-2-xxxxxx2-xxxxxx|
|-----------------|-----------------|-----------------|-----------------|
                                     { - - - 4x - - -} { - - - 4x - - -} 
|-----------------|-----------------|-----------------|-----------------|
|-----------------|-----------------|-----------------|-----------------|
|-5-5-5-5-5-5-5-5-|-5---------------|-9---9---9---9---|-----------------|
|-5-5-5-5-5-5-5-5-|-5---------------|-9---9---9---9---|-2---2---2---2---|
|-3-3-3-3-3-3-3-3-|-3---------------|-7---7---7---7---|-2---2---2---2---|
|-----------------|-----------------|-----------------|-0---0---0---0---|

Free me, leave me
Watch me as I'm going down
Free me, see me
Look at me, I'm falling and I'm falling.

It is not a habit, it is cool I feel alive I feel...
It is not a habit, it is cool I feel alive


Chorus:

It's not a habit, it's cool, I feel alive
If you don't have it you're on the other side
I'm not an addict maybe that's a lie
I'm not an addict
I'm not an addict...
Related for Not An Addict tab
Not An Addict chords by Ks Choice