Song name
# A B C D E F G H I J K L M N O P Q R S T U V W X Y Z

Ksm - Distracted tab

-------------------------------------------------------------------------------
			     Distracted - KSM
-------------------------------------------------------------------------------
Tabbed by: some1green
Email: non-ya@non-ya.com (contact me on youtube "youtube.com/some1green")
Info: i played it a lil different on my youtube video
but this is more accurate. I have to say this is pretty dang close to the real thing. i 
many live versions and had
pleasure of watching them from about 30 ft away. This is as close to perfect as a non 
member is going to get... unless i figure out something else wrong with it. If you
cant figure out the timing o well ur fault. i did my best to make it as straight forward 
possible.
Tuning: standard

IF YOUR GOING TO PLAY THIS SONG, MAKE SURE YOU GIVE ME CREDIT FOR THE TAB!!!
IF YOUR GOING TO PLAY THIS SONG, MAKE SURE YOU GIVE ME CREDIT FOR THE TAB!!!
IF YOUR GOING TO PLAY THIS SONG, MAKE SURE YOU GIVE ME CREDIT FOR THE TAB!!!
IF YOUR GOING TO PLAY THIS SONG, MAKE SURE YOU GIVE ME CREDIT FOR THE TAB!!!
IF YOUR GOING TO PLAY THIS SONG, MAKE SURE YOU GIVE ME CREDIT FOR THE TAB!!!
IF YOUR GOING TO PLAY THIS SONG, MAKE SURE YOU GIVE ME CREDIT FOR THE TAB!!!
IF YOUR GOING TO PLAY THIS SONG, MAKE SURE YOU GIVE ME CREDIT FOR THE TAB!!!

|||   ||| |||||||| |||||   |||||
|||  ||   |||      |||||| ||||||
||| ||    |||||||| |||  |||  |||
|||||     |||||||| |||       |||
||| ||         ||| |||       |||
|||  ||        ||| |||       |||
|||   ||| |||||||| |||       |||


   Lead Guitar
 |---------------------palm mute----------------------|
                   last time no palm mute and slide down with vibrato on the 8
e|-------------------------------------------------|--|
B|-------------------------------------------------|--|
G|-------------------------------------------------|--|(3x)
D|-----8--8-7-8---8-8-7-8---8-8-8/10-8-8-7---8-8-7-8--|
A|---10-10-------8-8------------------------8-8-------|
E|-------------------------6-6------------------------|

e|----------------------------------------------------------------------------|
B|-5-5-5-5-6-6-6-6-7-7-7-7-8--8--8--8--8--8--8--8--10-10-10-10-11-11-11-11-11-|
G|-7-7-7-7-8-8-8-8-9-9-9-9-10-10-10-10-10-10-10-10-12-12-12-12-13-13-13-13-13-|
D|----------------------------------------------------------------------------|
A|----------------------------------------------------------------------------|
E|----------------------------------------------------------------------------|

 Chorus

e|-----------------------------------------------------------------|
B|-----------------------------------------------------------------|
G|---------------8-------------------------------------------------|
D|-8------3------8-(x16)-8------3------7-8-8-7-8-8-7-8-7-8-7-8-7-8-|
A|-8-(x8)-3-(x8)-6-------8-(x8)-3-(x8)-5-6-6-5-6-6-5-6-5-6-5-6-5-6-|
E|-6------1--------------6------1----------------------------------|

e|---------------------------------------------|
B|---------------------------------------------|
G|---------------8---------------------5-------|
D|-8------3------8-(x16)-5------3------5-(x16)-|
A|-8-(x8)-3-(x8)-6-------5-(x8)-3-(x8)-3-------|
E|-6------1--------------3------1--------------|

 |--------------------palm mute----------------------|
                   last time no palm mute and slide down with vibrato on the 8
e|-------------------------------------------------|--|
B|-------------------------------------------------|--|
G|-------------------------------------------------|--|(3x)
D|-----8--8-7-8---8-8-7-8---8-8-8/10-8-8-7---8-8-7-8--|
A|---10-10-------8-8------------------------8-8-------|
E|-------------------------6-6------------------------|

e|----------------------------------------------------------------------------|
B|-5-5-5-5-6-6-6-6-7-7-7-7-8--8--8--8--8--8--8--8--10-10-10-10-11-11-11-11-11-|
G|-7-7-7-7-8-8-8-8-9-9-9-9-10-10-10-10-10-10-10-10-12-12-12-12-13-13-13-13-13-|
D|----------------------------------------------------------------------------|
A|----------------------------------------------------------------------------|
E|----------------------------------------------------------------------------|

 Chorus

e|------------------------------------------------------------------|
B|------------------------------------------------------------------|
G|---------------8--------------------------------------------------|
D|-8------3------8-(x16)-8------3------7-8-8-7-8-8-7-8--7-8-7-8-7-8-|
A|-8-(x8)-3-(x8)-6-------8-(x8)-3-(x8)-5-6-6-5-6-6-5-6--5-6-5-6-5-6-|
E|-6------1--------------6------1-----------------------------------|

e|---------------------------------------------|
B|---------------------------------------------|
G|---------------8---------------------5-------|
D|-8------3------8-(x16)-5------3------5-(x16)-|
A|-8-(x8)-3-(x8)-6-------5-(x8)-3-(x8)-3-------|
E|-6------1--------------3------1--------------|


e|--------------------------------------------------------|-----------|
B|--------------------------------------------------------|-----------|
G|-7-8-8-8--8-8-8-8--8-10-10-10--10------7-8-8-8--8-8-8-8-|-7---------|
D|-7-8-8-8--8-8-8-8--8-10-10-10--10-(x8)-7-8-8-8--8-8-8-8-|-5-(x11)-6-|
A|-5-6-6-6--6-6-6-6--6-8--8--8---8-------5-6-6-6--6-6-6-6-|-5-------6-|
E|--------------------------------------------------------|-3-------4-|

 Solo

e|---------------------------------------------------------------------------|
B|---11--11-10v-10h11--11-11-10v-10h11--11-11-11/13-11-10v--11--11-10v-10h11-|
G|-12--12-------------8--8--------------------------------10--10-------------|
D|-------------------------------------8--8----------------------------------|
A|---------------------------------------------------------------------------|
E|---------------------------------------------------------------------------|

e|---------------------------------------------------------------------------|
B|---11--11-10v-10h11--11-11-10v-10h11--11-11-11/13-11-10v--11--11-10v\------|
G|-12--12-------------8--8--------------------------------10--10-------------|
D|-------------------------------------8--8----------------------------------|
A|---------------------------------------------------------------------------|
E|---------------------------------------------------------------------------|

e|----------------------------------------------------------------------------|
B|-5-5-5-5-6-6-6-6-7-7-7-7-8--8--8--8--8--8--8--8--10-10-10-10-11-11-11-11-11-|
G|-7-7-7-7-8-8-8-8-9-9-9-9-10-10-10-10-10-10-10-10-12-12-12-12-13-13-13-13-13-|
D|----------------------------------------------------------------------------|
A|----------------------------------------------------------------------------|
E|----------------------------------------------------------------------------|

e|------------------------------------------------------------------|
B|------------------------------------------------------------------|
G|---------------8--------------------------------------------------|
D|-8------3------8-(x16)-8------3------7-8-8-7-8-8-7-8--7-8-7-8-7-8-|
A|-8-(x8)-3-(x8)-6-------8-(x8)-3-(x8)-5-6-6-5-6-6-5-6--5-6-5-6-5-6-|
E|-6------1--------------6------1-----------------------------------|

e|-------------------------------------------------|
B|-------------------------------------------------|
G|---------------8---------------------5-----------|
D|-8------3------8-(x16)-5------3------5-(x23?)-5~-|
A|-8-(x8)-3-(x8)-6-------5-(x8)-3-(x8)-3--------5~-|
E|-6------1--------------3------1---------------3~-|


   Ryhthm Guitar

e|---------------------------------------------------|
B|---------------------------------------------------|
G|---8----------8----------8---------5-------8-------|
D|-5-8-8-8\3--5-8-8-8\3--5-8-8-8\3---5-(x16)-8-(x15)-|
A|-5-6-8-8\3--5-6-8-8\3--5-6-8-8\3---3-------6-------|
E|-3---6-6\1--3---6-6\1--3---6-6\1-------------------|

 Chorus

e|------------------------------------------------------------------|
B|------------------------------------------------------------------|
G|---------------8--------------------------------------------------|
D|-8------3------8-(x16)-8------3------7-8-8-7-8-8-7-8--7-8-7-8-7-8-|
A|-8-(x8)-3-(x8)-6-------8-(x8)-3-(x8)-5-6-6-5-6-6-5-6--5-6-5-6-5-6-|
E|-6------1--------------6------1-----------------------------------|

e|---------------------------------------------|
B|---------------------------------------------|
G|---------------8---------------------5-------|
D|-8------3------8-(x16)-5------3------5-(x16)-|
A|-8-(x8)-3-(x8)-6-------5-(x8)-3-(x8)-3-------|
E|-6------1--------------3------1--------------|


e|---------------------------------------------------|
B|---------------------------------------------------|
G|---8----------8----------8---------5-------8-------|
D|-5-8-8-8\3--5-8-8-8\3--5-8-8-8\3---5-(x16)-8-(x15)-|
A|-5-6-8-8\3--5-6-8-8\3--5-6-8-8\3---3-------6-------|
E|-3---6-6\1--3---6-6\1--3---6-6\1-------------------|

 Chorus

e|------------------------------------------------------------------|
B|------------------------------------------------------------------|
G|---------------8--------------------------------------------------|
D|-8------3------8-(x16)-8------3------7-8-8-7-8-8-7-8--7-8-7-8-7-8-|
A|-8-(x8)-3-(x8)-6-------8-(x8)-3-(x8)-5-6-6-5-6-6-5-6--5-6-5-6-5-6-|
E|-6------1--------------6------1-----------------------------------|

e|---------------------------------------------|
B|---------------------------------------------|
G|---------------8---------------------5-------|
D|-8------3------8-(x16)-5------3------5-(x16)-|
A|-8-(x8)-3-(x8)-6-------5-(x8)-3-(x8)-3-------|
E|-6------1--------------3------1--------------|

e|----------------------------------------------------------------------|
B|----------------------------------------------------------------------|
G|------------------------------------------------------7---------------|
D|-6-6-6-6-----------8-8-8-8--3-------6-6-6-6-----------5-------6-6-6-6-|
A|-6-6-6-6--6-6-6-6--8-8-8-8--3-(x16)-6-6-6-6--6-6-6-6--5-(x11)-6-6-6-6-|
E|-4-4-4-4--3-3-3-3--6-6-6-6--1-------4-4-4-4--4-3-3-3--3-------4-4-4-4-|

 Solo

e|------------------------------------|      |------------------|
B|------------------------------------|      |------------------|
G|-----------8-8-8--------------------| (x2) |-5-------8--------|
D|-5-5-5--5--8-8-8--8-8-8--8\3--3-3-3-|      |-5-(x16)-8-(x9)---|
A|-5-5-5--5--6-6-6--8-8-8--8\3--3-3-3-|      |-3-------6--------|
E|-3-3-3--3---------6-6-6--6\1--1-1-1-|      |------------------|

e|------------------------------------------------------------------|
B|------------------------------------------------------------------|
G|---------------8--------------------------------------------------|
D|-8------3------8-(x16)-8------3------7-8-8-7-8-8-7-8--7-8-7-8-7-8-|
A|-8-(x8)-3-(x8)-6-------8-(x8)-3-(x8)-5-6-6-5-6-6-5-6--5-6-5-6-5-6-|
E|-6------1--------------6------1-----------------------------------|

e|-------------------------------------------------|
B|-------------------------------------------------|
G|---------------8---------------------5-----------|
D|-8------3------8-(x16)-5------3------5-(x23?)-5~-|
A|-8-(x8)-3-(x8)-6-------5-(x8)-3-(x8)-3--------5~-|
E|-6------1--------------3------1---------------3~-|


| /  slide up
| \  slide down
| h  hammer-on
| p  pull-off
| v  vibrato
| +  harmonic
| x  Mute note
| ~  let it ring
| ?  i'm not sure

===============================================================================
Tap to rate this tab
# A B C D E F G H I J K L M N O P Q R S T U V W X Y Z