Ksm - Read Between The Lines tab

-------------------------------------------------------------------------------
		                          Read Between The Lines - KSM
-------------------------------------------------------------------------------

Enjoy! =)

Tuning: Standard

[Intro]
e|----------------------------------------------|
B|----------------------------------------------|
G|-6-6---3-3-------6-6---3-3--------------------|
D|-6-6---3-3-------6-6---3-3--------------------|
A|-4-4---1-1-------4-4---1-1--------------------|
E|----------------------------------------------|

[Verse]
e|-----------------------------------------------------|
B|-----------------------------------------------------|
G|-6-6---3-3---6-6---3-3---8-8---4-4---8-8-------------|
D|-6-6---3-3---6-6---3-3---8-8---4-4---8-8---6-6---6-6-| 
A|-4-4---1-1---4-4---1-1---6-6---2-2---6-6---6-6---6-6-|
E|-------------------------------------------4-4---4-4-|

e|-----------------------------------------------------------|
B|-----------------------------------------------------------|
G|-6-6---3-3---6-6---3-3---8-8---4-4---8-8-------------------|
D|-6-6---3-3---6-6---3-3---8-8---4-4---8-8---6-6-6-6-6-6-6-6-| 
A|-4-4---1-1---4-4---1-1---6-6---2-2---6-6---6-6-6-6-6-6-6-6-|
E|-------------------------------------------4-4-4-4-4-4-4-4-|
                                             . . . . . . . .

[Chorus]
e|------------------------------------------------|
B|------------------------------------------------|
G|--------------------66666666--------------------|
D|--88888888-44444444-66666666-66666666-----------| x2
A|--88888888-44444444-44444444-66666666-----------|
E|--66666666-22222222----------44444444-----------|

e|-------------------------------------|
B|-------------------------------------|
G|-------------------------------------|
D|--4444-6666-8888-6666---4-4---6-6----|
A|--4444-6666-8888-6666---4-4---6-6----|
E|--2222-4444-6666-4444---2-2---4-4----|
    .... .... .... ....	

Repeat intro & verse

[Chorus]
e|------------------------------------------------|
B|------------------------------------------------|
G|--------------------66666666--------------------|
D|--88888888-44444444-66666666-66666666-----------| x2
A|--88888888-44444444-44444444-66666666-----------|
E|--66666666-22222222----------44444444-----------|

e|-----------------------------------|
B|-----------------------------------|
G|-----------------------------------|
D|--4444-6666-8888-6666-4444-6666----|
A|--4444-6666-8888-6666-4444-6666----|
E|--2222-4444-6666-4444-2222-4444----|
    .... .... .... .... .... ....	

[Bridge]
e|--------------------|
B|--------------------|
G|-8~---4~---8~-------|
D|-8~---4~---8~---6~--|
A|-6~---2~---6~---6~--|
E|----------------4---|

e|-----------------------|     
B|-----------------------|      
G|-----------------------|       
D|--4444-6666-8888-6666--| x3    
A|--4444-6666-8888-6666--|       
E|--2222-4444-6666-4444--|       
    .... .... .... ....	   

e|------------|
B|------------|
G|------------|
D|--4444-6666-|
A|--4444-6666-|
E|--2222-4444-|
    .... ....

[Chorus]
e|------------------------------------------------|
B|------------------------------------------------|
G|--------------------66666666--------------------|
D|--88888888-44444444-66666666-66666666-----------| x2
A|--88888888-44444444-44444444-66666666-----------|
E|--66666666-22222222----------44444444-----------|

e|-----------------------|
B|-----------------------|
G|-----------------------| x3
D|--4444-6666-8888-6666--|
A|--4444-6666-8888-6666--|
E|--2222-4444-6666-4444--|
    .... .... .... ....

e|-------------------------|
B|-------------------------|
G|--------------6~---------|
D|--4-4---6-6---6~---------|
A|--4-4---6-6---4~---------|
E|--2-2---4-4--------------|

[End]
Tap to rate this tab
 
# A B C D E F G H I J K L M N O P Q R S T U V W X Y Z