Ksm - I Want You To Want Me tab

Tabbed by JSPATIG

intro riff

e------------------------------------------------|
B--8~~~------------------------------------------|
G--8b10--8b10r8p6--8--8b10r8-6--6h8p6-----5/6----|
D-------------------------------------9\4--------|
A------------------------------------------------|
E------------------------------------------------|





main solo

e--------------------------------------------------------------|
B-------9------9------9------9------9------9------9------------|
G--8b10---8b10---8b10---8b10---8b10---8b10---8b10---8b10r8--8--|
D--------------------------------------------------------------|
A--------------------------------------------------------------|
E--------------------------------------------------------------|

e-------------------------------------------------------|
B-------------------------------------------------------|
G--6-8b10--8b10--6h8p6---6------------------------------|
D----------------------8---8-8-6-6-4-4-4-4-4\3-3h4-4/6--|
A-------------------------------------------------------|
E-------------------------------------------------------|


e---------------------------------------|
B-----------------------14--------------|
G----8/10--10-11--11/13----13-11-10-----|
D---------------------------------------|
A---------------------------------------|
E---------------------------------------|


e------------|      e------|
B------------| x16  B------|
G--13p11p10--|      G--10~~|
D------------|      D------|
A------------|      A------|
E------------|      E------|
Tap to rate this tab
 
# A B C D E F G H I J K L M N O P Q R S T U V W X Y Z