Song name
# A B C D E F G H I J K L M N O P Q R S T U V W X Y Z

Ksm - Permission To Party tab

KSM
Permission To Party
Read Between The Lines
2009 Hollywood Records
Submitted by: paramore_fans@yahoo.com

Key: A, F#

Tuning: Drop D

Chords used: Drop D Only
F#m - 444xxx
F# -  444xxx
B -   999xxx
Ebm - 111xxx
G#m - 666xxx
E -   222xxx
C# -  x466xx

Chords used: for Standard EADGBe
F#m - 244222
F# -  244322
B -   x24442
Ebm - x68876
G#m - 466444
E -   022100
C# -  x46664


Intro: Drumbeats
What? Play
Yeah Listen up
C-c-c-come on


Main Riff:

Katie:
               F#m
e|------------------------------|
B|------------------------------|
G|------------------------------|
D|------------------------------| x4
A|-----4-7--7---6--6---5--------|
D|-4-4--------4------4----7-6-5-|


Shia:
               F#m will enter at 3rd time of Katie
e|---------------------------------------|
B|---------------------------------------|
G|---------------------------------------|
D|-----11-14--14---13--13---12-----------| x2
A|-9-9-----------9--------9-----12-11-10-|
D|---------------------------------------|

Sophia:
               F#m
G|------------------------------|
D|------------------------------|
A|-----4-7--7---6--6---5--------| x4
D|-4-4--------4------4----7-6-5-|


Verse 1:
F#
  Get up early
E
Don't be late for school
 Ebm
Slow down to 55
 D         E
Obey every single rule
F#
  Turn off your cell phone
E
  When the movie starts
Ebm
   Get back home
  D            E
before it gets dark


Katie: Main Verse Riff, This is also Sophia's Bass Riff x2
       F#             E             Ebm
e|------------|---------------|------------|
B|------------|---------------|------------|
G|------------|---------------|------------|
D|------------|---------------|------------|
A|-------2--1-|----------2--1-|-------2--1-|
D|-4-1-4------|-2--2-4-1------|-1-4-1------|


     D       E
e|-------|-------|
B|-------|-------|
G|-------|-------|
D|-------|-------|
A|-----0-|-----2-|
D|-0-0---|-2-2---|


Refrain 1:
     G#m
Come on Enough with
                     B
this "What we should do"
                     G#m
We've got nothing to prove
              B
After all the work is through


Chorus 1:
F#
Let's go
B        Ebm
We don't need no
   G#m
Permission to party
F#         B
Let's rock non-stop
      Ebm
Cause everyone's got
   E
Permission to party
F#        B
  No application needed
Ebm             G#m
   Satisfaction guaranteed
    F#       B
and We don't need no
   Ebm
Permission to party
 E
(Permission to party)
   E(hold)
Permission to party


Post Chorus:

Katie:
               F#m
e|------------------------------|
B|------------------------------|
G|------------------------------|
D|------------------------------| x2
A|-----4-7--7---6--6---5--------|
D|-4-4--------4------4----7-6-5-|


Shia:
                   F#m
e|---------------------------------------|
B|---------------------------------------|
G|---------------------------------------|
D|-----11-14--14---13--13---12-----------| x2
A|-9-9-----------9--------9-----12-11-10-|
D|---------------------------------------|

Sophia:
               F#m
G|------------------------------|
D|------------------------------|
A|-----4-7--7---6--6---5--------| x2
D|-4-4--------4------4----7-6-5-|


Verse 2:

sophia only:
F#
  Do your homework
E
  Clean up your mess
Ebm
   Don't act too crazy
          D(hold)
When your parents
entertain guests


then Katie and Shia will enter:
F#
  Get off your laptop
E
  Hang up your phone
Ebm
   Sometimes you just
      D       E
wanna lose control


(Repeat Refrain 1)


Chorus 2:
F#
Let's go
B        Ebm
We don't need no
   G#m
Permission to party
F#         B
Let's rock non-stop
      Ebm
Cause everyone's got
   E
Permission to party
F#        B
  No application needed
Ebm             G#m
   Satisfaction guaranteed
    F#       B
and We don't need no
   Ebm
Permission to party
 E
(Permission to party)
   E
Permission to party


Bridge:
Ebm
   Everyone's got
the right to
B
  Take a little holiday
F#
  No requirements
                    C#
Except to have some fun oh
Ebm
   Everybody knows
just what to do
B
  Live a little celebrate
C#
I know you know
We don't need no
Permission to party
From anyone


Guitar Solo:

Katie:
               F#m
e|------------------------------|
B|------------------------------|
G|------------------------------|
D|------------------------------| x4
A|-----4-7--7---6--6---5--------|
D|-4-4--------4------4----7-6-5-|


Shia: F#m Solo to be tabbed soon


Sophia:
               F#m
G|------------------------------|
D|------------------------------|
A|-----4-7--7---6--6---5--------| x4
D|-4-4--------4------4----7-6-5-|


All right
Everybody
Yeah yeah yeah


Refrain 2:
          G#m
C-C-C-C-C-Come on This is
                     B
how we're making the rules
                           G#m
Coz We've got something to prove
                      B(hold) B--
So what are you gonna do


Chorus 3:
F#
Let's go
B        Ebm
We don't need no
   G#m
Permission to party
F#         B
Let's rock non-stop
      Ebm
Cause everyone's got
   E
Permission to party
F#        B
  No application needed
Ebm             G#m
   Satisfaction guaranteed
    F#       B
and We don't need no
   Ebm
Permission to party
   E
Permission to party


Chorus 4: While Shia overlaps her guitar solo
F#
Let's go
B        Ebm
We don't need no
   G#m
Permission to party
F#         B
Let's rock non-stop
      Ebm
Cause everyone's got
   E
Permission to party
F#        B
  No application needed
Ebm             G#m
   Satisfaction guaranteed
    F#       B
and We don't need no
   Ebm
Permission to party
 E
(Permission to party)
   E               E-- F#(hold)
Permission to party
Tap to rate this tab
# A B C D E F G H I J K L M N O P Q R S T U V W X Y Z