Song name
# A B C D E F G H I J K L M N O P Q R S T U V W X Y Z

Ksmb - Harding tab

|------------------------------------------------------------------|
                           KSMB - Harding
|------------------------------------------------------------------|

Tabbed By : Jont3

Intro & vers;
E|5--5--3--4|5--5--3--4|5--5--3--4|5--5--3--4|----------|----------|
A|7--7--5--6|7--7--5--6|7--7--5--6|7--7--5--6|5--5--3--4|5--5--3--5|
D|7--7--5--6|7--7--5--6|7--7--5--6|7--7--5--6|7--7--5--6|7--7--5--7|
G|----------|----------|----------|----------|7--7--5--6|7--7--5--7|
B|----------|----------|----------|----------|----------|----------|
e|----------|----------|----------|----------|----------|----------|


E|5--5--3--4|5--5--3--4|----------|----------|5--5--3--4|5---------|
A|7--7--5--6|7--7--5--6|7--7--5--7|5--5--3--5|7--7--5--6|7---------|
D|7--7--5--6|7--7--5--6|9--9--7--9|7--7--5--7|7--7--5--6|7---------|
G|----------|----------|9--9--7--9|7--7--5--7|----------|----------|
B|----------|----------|----------|----------|----------|----------|
e|----------|----------|----------|----------|----------|----------|


Ref;
E|---5------|----------|5555555555|----------|----------|----------|
A|---7--3--4|5555555555|7777777777|5555555555|7---------|----------|
D|---7--5--6|7777777777|7777777777|7777777777|9---------|----------|
G|------5--6|7777777777|----------|7777777777|9---------|----------|
B|----------|----------|----------|----------|----------|----------|
e|----------|----------|----------|----------|----------|----------|
Tap to rate this tab
# A B C D E F G H I J K L M N O P Q R S T U V W X Y Z