Song name
# A B C D E F G H I J K L M N O P Q R S T U V W X Y Z

Kt Tunstall - Beauty Of Uncertainty tab

Hola soy de Peru, y ojala esten bien estos mi nombre es: Jorge Francisco Huaman Olivas. LIMA

Intro, verse 1, 2 & chorus:
             E                    Bm                  Am7
E------------0------------------------------------------------0---------|
B------0-------0---0--------0-----3-----0---------0-----3--------3------|
G--1-----1-----------1--------0-----0-----0----2----2-----2--------0----|
D----2-----2-----2------4-------4-4---4-----0--2-2----2-----2-----------|
A--2---------2----------2-2-----------------------------0---------------|
E-----------------------------------------------------------------------|

           E
E------------0---------|
B------0-------0---0---|
G--1-----1-----------1-|               Y SE REPITE TODO DE NUEVO
D----2-----2-----2-----|
A--2---------2---------|
E----------------------|


BRIDGE:

E--0------0------0------0------0------0------0------0------0------0--------|
B----3------3------3------3------3------3------3------3------3------3------|
G------4------4------4------0------2------2------2------0------0------0----|
D--4------4------4------4------2------2------2------2-------------2--------|
A----------------------------------------------------------2---------------|
E--------------------------------------------------------------------------|

E--O------0------0------0------0------0-----|
B----3------3------3------3------3------3---|
G------0------0------2------2------2------0-|      Y ESTO SE REPITE 3 VECES
D---------2------2------2------2------2-----|
A--2----------------------------------------|
E-------------------------------------------|


LUEGO SE RASGUEAN LOS ACORDES:

Bm Am7 Em7 Am7

Y TERMINARÍA ASI: Bm Am7

CHORD FINAL: Em7
Tap to rate this tab
# A B C D E F G H I J K L M N O P Q R S T U V W X Y Z