Guitaretab - guitar tabs
Song name
# A B C D E F G H I J K L M N O P Q R S T U V W X Y Z

Kt Tunstall - Someday Soon tab

-----------------------------------------------------------------------------
			     Someday Soon  KT Tunstall
-----------------------------------------------------------------------------
Tabbed by: Jeremy Wilde
Email: wilde.jeremy@gmail.com

Tuning: Standard

Intro
e|-------------------------------------------------------------------------|
B|---5---7----7----/10----10-----10----10-----10--12--8---8----7---7-------|
G|---6---7---------/11-----------11-----------11--12--9--------7-----------|
D|----------0-----------0-----------0-------------------0--------0---------|
A|-------------------------------------------------------------------------|
E|-------------------------------------------------------------------------|

e|-------------------------|
B|--7---7----7----7----7---|
G|--7--------7---------7---|
D|----0--------0-----------|
A|-------------------------|
E|-------------------------|


Verse: The same as the intro.  

And as I put my words away
The flow slows
See this pen in a stream
Picking it up is easy.

I think it's time to put myself away
Seek out a little silence
Close the doors and sit a while
Walk a little


Pre-chorus
e|-------------------------------------------------------------------------|
B|--5----5-----5----5----5----5-----5---7---3---3----3----3-----3---3----3-|
G|--6----------6---------6----------6---7---4--------4----------4--------4-|
D|-----0----------0--------0------------------0---------0-----0---0--------|
A|-------------------------------------------------------------------------|
E|-------------------------------------------------------------------------|
[ Tab from: http://www.guitaretab.com/k/kt-tunstall/165407.html ]
e|-------------------------------------------------------------------------|
B|-5----5-----5----5----5----5-----5---10---3---3----3----3-----3---3----3-|
G|-6----------6---------6----------6---11---4--------4----------4--------4-|
D|----0----------0--------0------------------0---------0-----0---0---------|
A|-------------------------------------------------------------------------|
E|-------------------------------------------------------------------------|

Follow the shape of it.
Jump in.
Swallow it whole.
Jump in.


Chorus:  The guitar is really soft here.  Maybe throw some notes on the open D string if you want.
e|-------------------------------------------------------------------------|
B|---3---3---3----5---2--2------3--3--3---5--7--7-----3--3--3--5--7--7---3-|
G|---4---4---4----6---2--2------4--4--4---6--7--7-----4--4--4--6--7--7---4-|
D|-------------------------------------------------------------------------|
A|-------------------------------------------------------------------------|
E|-------------------------------------------------------------------------|

Even though I know my around
Possibly there's something that I found
Holding on for finding solid ground
Someday soon.
Someday soon.

I'll turn myself into the grass
And I'll grow
Take this space above my head
And live a little, little.

Gonna wear my feathered headress
Like an indian chief.
Gonna stretch out both my arms
I'm gonna test the temperature.

Follow the taste of it.
Jump in.
Swallow it whole.
Jump in.

Even though I know my around (even though)
Possibly there's something that I found (possibly I, possibly I)
Holding on for finding solid ground (ohh..)
Even though I know my around (even though)
Possibly there's something newI found (possibly I, possibly I)
Holding on for finding solid ground (ohh..)
Someday soon.
Someday soon.

Maybe walk a little
Someday soon.

| /  slide up
| \  slide down
| h  hammer-on
| p  pull-off
| ~  vibrato
| +  harmonic
| x  Mute note
===============================================================================


Related for Someday Soon tab